Song name
# A B C D E F G H I J K L M N O P Q R S T U V W X Y Z

Jamie Lenman - All The Things You Hate About Mei Hate Them Too tab

Jamie lenman - All The Things You Hate About Me,I Hate Them Too

Drop C# tuning

verse

-------------------------------------------------------|
-------------------------------------------------------|
-13-13---13-13---13-13---13-13---13-13---13-13---13-13-|
-12-12---12-12---12-12---12-12---12-12---12-12---12-12-|
-11-11---11-11---11-11---11-11---11-11---11-11---11-11-|
-11-11-0-11-11-0-11-11-0-11-11-0-11-11-0-11-11-0-11-11-|

-------------------------------------------------------------|
-------------------------------------------------------------|
---12--13-13---13-13---13-13---13-13---13-13---13-13---15-15-|
---11--12-12---12-12---12-12---12-12---12-12---12-12---14-14-|
---10--11-11---11-11---11-11---11-11---11-11---11-11---13-13-|
-0-10--11-11-0-11-11-0-11-11-0-11-11-0-11-11-0-11-11-0-13-13-|

---------------|
---------------|
---12-12---14--|
---11-11---13--|
---10-10---12--|
-0-10-10-0-12--|

pre-chorus

-----/-------------------------------------     --------------------------|
-----/-------------------------------------     --------------------------|
-----/-------------------------------------     --------------------------|
-2-1-/-0-9-8-7-2-1-0-7-6-3-4-3-------------     -9-9--1010--11-11--12-12--|
-2-1-/-0-9-8-7-2-1-0-7-6-3-4-3-------------     -8-8--9-9---10-10--11-11--|
-2-1-/-0-9-8-7-2-1-0-7-6-3-4-3------------- x3  -8-8--9-9---10-10--11-11--|

chorus

------------------------------------------------------|
------------------------------------------------------|
------------------------------------------------------|
-6666666666666666-14141414141414141414141414141414----|
-xxxxxxxxxxxxxxxx-xxxxxxxxxxxxxxxxxxxxxxxxxxxxxxx-----|
-2222222222222222-10101010101010101010101010101010----|

--------------------------------------|
--------------------------------------|
--------------------------------------|
-8888888888888888-9999999999999999----|
-xxxxxxxxxxxxxxxx-xxxxxxxxxxxxxxxx----|
-4444444444444444-5555555555555555----|

------------------------------------------------------|
------------------------------------------------------|
------------------------------------------------------|
-6666666666666666-14141414141414141414141414141414----|
-xxxxxxxxxxxxxxxx-xxxxxxxxxxxxxxxxxxxxxxxxxxxxxxx-----|
-2222222222222222-10101010101010101010101010101010----|

--------------------------------------|
--------------------------------------|
--------------------------------------|
-8888888888888888-7777777777777777----|
-xxxxxxxxxxxxxxxx-xxxxxxxxxxxxxxxx----|
-4444444444444444-3333333333333333----| x2

break

---------------------------------------------------------------|
---------------------------------------------------------------|
---------------------------------------------------------------|
---------------------------------------------------------------|
---------------------------------------------------------------|
-22222222-2-2b3r2--22222222-2-2b3r2--22222222-2-2b3r2-11111111-| x3
 ******** *        ******** *        ******** *       ********

---------------------------------------------------------------|
---------------------------------------------------------------|
-------------------------------------------------------11-12---|
-------------------------------------------------------10-11---|
-------------------------------------------------------9--10---|
-22222222-2-2b3r2--22222222-2-2b3r2--22222222-2-2b3r2--9--10---|
 ******** *        ******** *        ******** *

verse x2 then


-------------------------------------------------/-------------|
-------------------------------------------------/-------------|
-13-13---13-13---13-13---13-13-------------------/-------------|
-12-12---12-12---12-12---12-12-------------------/-------------|
-11-11---11-11---11-11---11-11---0-0-0-0-0-0-----/-0-0-0-0-0-0-|
-11-11-0-11-11-0-11-11-0-11-11-0-0-0-0-0-0-0(x2)-/-0-0-0-0-0-0-|
                                 * * * * * *       * * * * * *

chorus with palm mutes

then

-------------------------------------------------------|
-------------------------------------------------------|
-------------------------------------------------------|
-6--0-6-0-6-6--0-6-0-6-14--0-14-0-14-14--0-14-0-14-----|
-2--0-2-0-2-2--0-2-0-2-10--0-10-0-10-10--0-10-0-10-----|
-2--0-2-0-2-2--0-2-0-2-10--0-10-0-10-10--0-10-0-10-----|

--------------------------------------------------|
--------------------------------------------------|
--------------------------------------------------|
-8--0-8-0-8-8--0-8-0-8-9--0-9-0-9-9--0-9-0-9------|
-4--0-4-0-4-4--0-4-0-4-5--0-5-0-5-5--0-5-0-5------|
-4--0-4-0-4-4--0-4-0-4-5--0-5-0-5-5--0-5-0-5------|

-------------------------------------------------------|
-------------------------------------------------------|
-------------------------------------------------------|
-6--0-6-0-6-6--0-6-0-6-14--0-14-0-14-14--0-14-0-14-----|
-2--0-2-0-2-2--0-2-0-2-10--0-10-0-10-10--0-10-0-10-----|
-2--0-2-0-2-2--0-2-0-2-10--0-10-0-10-10--0-10-0-10-----|

--------------------------------------------------|
--------------------------------------------------|
--------------------------------------------------|
-8--0-8-0-8-8--0-8-0-8-7--0-7-0-7-7--0-7-0-7------|
-4--0-4-0-4-4--0-4-0-4-3--0-3-0-3-3--0-3-0-3------|
-4--0-4-0-4-4--0-4-0-4-3--0-3-0-3-3--0-3-0-3------|

---0~-----0~-----0~----0~---0~-----0~-----0~----0~-|
---0~-----0~-----0~----0~---0~-----0~-----0~----0~-|
---------------------------------------------------|
-6~--6s14~--14s8~--8s9~---6~--6s14~--14s8~--8s7~---|
-2~--2s10~--10s4~--4s5~---2~--2s10~--10s4~--4s3~---|
-2~--2s10~--10s4~--4s5~---2~--2s10~--10s4~--4s3~---|

break

then
--------------------/----------------------|
--------------------/----------------------|
--------------------/----------------------|
-7-7-6-6-5-5-5------/--7-7-7-7-7-7-7-------|
-7-7-6-6-5-5-5------/--7-7-7-7-7-7-7-------|
-7-7-6-6-5-5-5-(x7)-/--7-7-7-7-7-7-7-------| x2

------------------------------------|
------------------------------------|
-11-11------------------------------|
-10-10--0h2p0-----------------------|
-10-10--0h2p0-----------------------|
-10-10--0h2p0-----------------------| x8

--------------------/----------------------|
--------------------/----------------------|
--------------------/----------------------|
-7-7-6-6-5-5-5------/--7-7-7-7-7-7-7-------|
-7-7-6-6-5-5-5------/--7-7-7-7-7-7-7-------|
-7-7-6-6-5-5-5-(x7)-/--7-7-7-7-7-7-7-------| x2

outro

-------------------------------------|
-------------------------------------|
-------------------------------------|
-------------------------------------|
-00000--0000000--00000--00000000000--|
-00000--0000000--00000--00000000000--| x2
 *****  *******  *****  ***********

-------------------------------------    end on ---|
-------------------------------------           ---|
-----2--------2------2------------2--           ---|
-----0--------0------0------------0--           ---|
-00000--0000000--00000--00000000000--           -0-|
-00000--0000000--00000--00000000000-- x4        -0-|
 ****   ******   ****   **********               *
Tap to rate this tab
# A B C D E F G H I J K L M N O P Q R S T U V W X Y Z