Song name
# A B C D E F G H I J K L M N O P Q R S T U V W X Y Z

Jamie Lenman - All The Things You Hate About Me I Hate Them Too tab

-------------------------------------------------------|
-------------------------------------------------------|
-------------------------------------------------------|
-11-11---11-11---11-11---11-11---11-11---11-11---11-11-|
-11-11---11-11---11-11---11-11---11-11---11-11---11-11-|
-11-11-0-11-11-0-11-11-0-11-11-0-11-11-0-11-11-0-11-11-|

-------------------------------------------------------------|
-------------------------------------------------------------|
-------------------------------------------------------------|
---10--11-11---11-11---11-11---11-11---11-11---11-11---13-13-|
---10--11-11---11-11---11-11---11-11---11-11---11-11---13-13-|
-0-10--11-11-0-11-11-0-11-11-0-11-11-0-11-11-0-11-11-0-13-13-|

---------------|
---------------|
---------------|
---10-10---12--|
---10-10---12--|
-0-10-10-0-12--|

pre-chorus

---------------------------------------     --------------------------|
---------------------------------------     --------------------------|
---------------------------------------     --------------------------|
-2-1-0-9-8-7-2-1-0-7-6-3---------------     -9-9--1010--11-11--12-12--|
-2-1-0-9-8-7-2-1-0-7-6-3---------------     -8-8--9-9---10-10--11-11--|
-2-1-0-9-8-7-2-1-0-7-6-3--------------- x3  -8-8--9-9---10-10--11-11--|

chorus

------------------------------------------------------|
------------------------------------------------------|
------------------------------------------------------|
-6666666666666666-14141414141414141414141414141414----|
-xxxxxxxxxxxxxxxx-xxxxxxxxxxxxxxxxxxxxxxxxxxxxxxx-----|
-2222222222222222-11111111111111111111111111111111----|

--------------------------------------|
--------------------------------------|
--------------------------------------|
-8888888888888888-9999999999999999----|
-xxxxxxxxxxxxxxxx-xxxxxxxxxxxxxxxx----|
-5555555555555555-6666666666666666----|

------------------------------------------------------|
------------------------------------------------------|
------------------------------------------------------|
-6666666666666666-14141414141414141414141414141414----|
-xxxxxxxxxxxxxxxx-xxxxxxxxxxxxxxxxxxxxxxxxxxxxxxx-----|
-2222222222222222-11111111111111111111111111111111----|

--------------------------------------|
--------------------------------------|
--------------------------------------|
-8888888888888888-7777777777777777----|
-xxxxxxxxxxxxxxxx-xxxxxxxxxxxxxxxx----|
-5555555555555555-4444444444444444----| x2

break

---------------------------------------------------------------|
---------------------------------------------------------------|
---------------------------------------------------------------|
---------------------------------------------------------------|
------------------------------------------------0-0-0-3-3-3----|
-22222222-2-2br--22222222-2-2br--22222222-2-2br-0-0-0-3-3-3----| x3
 ******** *        ******** *        ******** *       

---------------------------------------------------------|
---------------------------------------------------------|
-------------------------------------------------11-12---|
-------------------------------------------------10-11---|
-------------------------------------------------9--10---|
-22222222-2-2br--22222222-2-2br--22222222-2-2br--9--10---|
 ******** *        ******** *        ******** *

verse x2 then


-------------------------------------------------/-------------|
-------------------------------------------------/-------------|
-------------------------------------------------/-------------|
-11-11---11-11---11-11---11-11-------------------/-------------|
-11-11---11-11---11-11---11-11---0-0-0-0-0-0-----/-0-0-0-0-0-0-|
-11-11-0-11-11-0-11-11-0-11-11-0-0-0-0-0-0-0(x2)-/-0-0-0-0-0-0-|
                                 * * * * * *       * * * * * *

chorus (first part bass only then palm mute chorus)

then

-------------------------------------------------------|
-------------------------------------------------------|
-------------------------------------------------------|
-2--0-2-0-2-2--0-2-0-2-10--0-10-0-10-10--0-10-0-10-----|
-2--0-2-0-2-2--0-2-0-2-10--0-10-0-10-10--0-10-0-10-----|
-2--0-2-0-2-2--0-2-0-2-10--0-10-0-10-10--0-10-0-10-----|

--------------------------------------------------|
--------------------------------------------------|
--------------------------------------------------|
-4--0-4-0-4-4--0-4-0-4-5--0-5-0-5-5--0-5-0-5------|
-4--0-4-0-4-4--0-4-0-4-5--0-5-0-5-5--0-5-0-5------|
-4--0-4-0-4-4--0-4-0-4-5--0-5-0-5-5--0-5-0-5------|

-------------------------------------------------------|
-------------------------------------------------------|
-------------------------------------------------------|
-2--0-2-0-2-2--0-2-0-2-10--0-10-0-10-10--0-10-0-10-----|
-2--0-2-0-2-2--0-2-0-2-10--0-10-0-10-10--0-10-0-10-----|
-2--0-2-0-2-2--0-2-0-2-10--0-10-0-10-10--0-10-0-10-----|

--------------------------------------------------|
--------------------------------------------------|
--------------------------------------------------|
-4--0-4-0-4-4--0-4-0-4-3--0-3-0-3-3--0-3-0-3------|
-4--0-4-0-4-4--0-4-0-4-3--0-3-0-3-3--0-3-0-3------|
-4--0-4-0-4-4--0-4-0-4-3--0-3-0-3-3--0-3-0-3------|

---0~-----0~-----0~----0~---0~-----0~-----0~----0~-|
---0~-----0~-----0~----0~---0~-----0~-----0~----0~-|
---------------------------------------------------|
-6~--6s14~--14s8~--8s9~---6~--6s14~--14s8~--8s7~---|
---------------------------------------------------|
-2~--2s11~--11s5~--5s6~---2~--2s11~--11s5~--5s4~---|

break

then
------------------------------------------|
------------------------------------------|
------------------------------------------|
-7-7-6-6-5-5-5-7-7-7-6-6-5-5-----7--------|
-7-7-6-6-5-5-5-7-7-7-6-6-5-5-----7--------|
-7-7-6-6-5-5-5-7-7-7-6-6-5-5(x4)-7-(x8)---| x2

---------------------------------|
---------------------------------|
---------------------------------|
-5-5-0h2p0-----------------------|
-3-3-0h2p0-----------------------|
-----0h2p0-----------------------| x8

------------------------------------------|
------------------------------------------|
------------------------------------------|
-7-7-6-6-5-5-5-7-7-7-6-6-5-5-----7--------|
-7-7-6-6-5-5-5-7-7-7-6-6-5-5-----7--------|
-7-7-6-6-5-5-5-7-7-7-6-6-5-5(x4)-7-(x8)---|
------------------------------------------|
------------------------------------------|
------------------------------------------|
-7-7-6-6-5-5-5-7-7-7-6-6-5-5-----7--------|
-7-7-6-6-5-5-5-7-7-7-6-6-5-5-----7--------|
-7-7-6-6-5-5-5-7-7-7-6-6-5-5(x4)-7-(x30)--| 

outro

-------------------------------------|
-------------------------------------|
-------------------------------------|
-------------------------------------|
-00000--0000000--00000--00000000000--|
-00000--0000000--00000--00000000000--| x2
 *****  *******  *****  ***********

-------------------------------------    end on ---|
-------------------------------------           ---|
-------------------------------------           ---|
-------------------------------------           ---|
-00000--0000000--00000--00000000000--           -0-|
-00000--0000000--00000--00000000000-- x4        -0-|
 ****   ******   ****   **********               *
Tap to rate this tab
# A B C D E F G H I J K L M N O P Q R S T U V W X Y Z