Song name
# A B C D E F G H I J K L M N O P Q R S T U V W X Y Z

Jamie Mcdell - Life In Sunshine tab

Jamie McDell - LIFE in Sunshine
Notes: Lead has a fast tremolo

InTro- Lead
E|------------------------------------------------|
A|------------------------------------------------|
D|-0----------------------------------------------|
G|--2------------2---------2----------------------|
B|---------2-3-0-----------------2-0--------------|
e|-----2-0-------------------2-0------------------|

InTro/Verse/- Rhythm (Palm mute in verse)

E|--------5555--------3333----------|
A|--5555--7777--7777--5555----------|
D|--7777--------9999----------  X 2-|
G|----------------------------------|
B|----------------------------------|
e|----------------------------------|

Chorus _ Rhythm
E|--------5555--33333333-     --------5555-----------|
A|--5555--7777--55555555-     --5555--7777--3333-----|
D|--7777-----------------     --7777--------5555-----|
G|----------------------- X 3 -----------------------|
B|-----------------------     -----------------------|
e|-----------------------     -----------------------|

Chorus- Lead
E|------------------------------------------------|
A|------------------------------------------------|
D|------------------------------------------------|
G|--2------------2---------2----------------------|
B|---------2-3-0-----------------2-0--------------|
e|-----2-0-------------------2-0------------------|

Chorus- Lead
E|------------------------------------------------|
A|------------------------------------------------|
D|------------------------------------------------|
G|--2------------2---------2----------------------|
B|---------2-3-0-----------------2-3--------------|
e|-----2-0-------------------2-0------------------|


Verse - Rhythm (Palm mute in verse)

E|--------5555--------3333----------|
A|--5555--7777--7777--5555----------|
D|--7777--------9999----------  X 2-|
G|----------------------------------|
B|----------------------------------|
e|----------------------------------|

Verse 2 _ Lead (2nd Half) only
E|----------------------------------------------------|
A|----------------------------------------------------|
D|----------------------------------------------------|
G|----------------------------------------------------|
B|-3-2-3-0---3-2-3-0---3-2-3--------------------------|
e|---------------------------0-2-3-5------------------|

(Chorus)

Bridge _ Lead (into Bridge)
E|------------------------------------------------|
A|--5--7--9---10--12------------------------------|
D|--x--x--x---x---x-------------------------------|
G|--7--9--11--12--14------------------------------|
B|------------------------------------------------|
e|------------------------------------------------|

Bridge - Rhythm
E|------3---5------------        -------3---5555------------------------|
A|--3---5---7------------        ---3---5---7777------------------------|
D|--5--------------------  X 3   ---5-----------------------------------|
G|--------------------           ---------------------------------------|
B|--------------------           ---------------------------------------|
e|--------------------           ---------------------------------------|


Bridge- LeAd
E|---------------      ----------------------------|
A|---------------      ----------------------------|
D|---------------      ----------------------------|
G|---------2-0---- X3  ----------------------------|
B|-2-3-2-0-------      ---2-3-2---2-3--------------|
e|---------------      ---------0-----0------------|

OR Alternate Lead Bridge
E|---------------------         -----------------------|
A|---------------------         -----------------------|
D|--11-12-11-9---------         -----------9-------9---|
G|-------------12-10--- X 3     --11-12-11---11-12-----|
B|---------------------         -----------------------|
e|--------------------          -----------------------|
Tap to rate this tab
# A B C D E F G H I J K L M N O P Q R S T U V W X Y Z