Song name
# A B C D E F G H I J K L M N O P Q R S T U V W X Y Z

Jamie Mcdell - Life In Sunshine chords

Highlighted       Show chord diagrams
Here are the chords with lead guitar parts tabbed:

Intro Chords and Lead Guitar    
   D     A   G    Em     D    A   G  Em
e|-----------------------|-----------------|
B|-----------------------|-----------------|
G|---7/9-7---------------|---7/9-7---------|
D|--7-------11-12-9-7----|--7-------11-9---|
A|-----------------------|-----------------|
E|-----------------------|-----------------|

D  A          Em   G                 
I know we'll be alright
D   A          Em   G 
I'm sure this time
D   A      Em    G
Today it's warm outside
D  A       Em     G
Today we're fine

D    A        Em       G 
These days we live our lives 
D            A       Em    G 
Like there's more to see
D         A      Em      G 
But I've come to realize
D          A      Em     G 
What's in front of me
 
Chorus (with intro line played by Lead Guitar):
D                    A
I'm so hot got my feet on fire 
G                     Em
I'm so gone turn the beat up higher
D                           A             G
And we know we're living life in sunshine
D                    A
No time for stress we're all lazy, 
G                     Em
and tonight we're gonna go crazy
D                            A                 C
Cause we know we're living life in sunshine

D     A        Em   G                
This ain't no TV show, 
D        A          Em   G                   
this is life right now
D        A       Em   G                      
So turn up the radio, 
D                    Em   G                   
sing this song out loud

D          A          Em       G                     
There's nowhere you need to be, 
D          A       Em        G                       
but right here beside the sea
D  A      Em      G          
Today I lost my mind 
D      A   Em   G
and I feel alive
 
Chorus (with Intro line played by Lead Guitar)

Hold the C chord at the end of the chorus while lead plays:
e|---------------|
B|---------------|
G|-------11-12---|
D|--12-14--------|
A|---------------|
E|---------------|

Bridge:
C            G      D
This is the golden age
C       G      D
Driving in my car
C          G      D
So listen closely baby
C          G       D
I'm loving where we are

At the end of lines 1-3 of the Bridge, the Lead Guitar plays:
e|---------------|       
B|-2-3-2-0-------|
G|---------2-0---|  x3
D|---------------|
A|---------------|
E|---------------|

Then after the last line, play:
e|------------------|
B|-2-3-2-5---2-3-5--|
G|------------------|
D|------------------|
A|------------------|
E|------------------|

Chorus
 
Bridge 

Last line no chords vocal only:
I'm loving where we are

Tap to rate this tab
 
# A B C D E F G H I J K L M N O P Q R S T U V W X Y Z