Song name
# A B C D E F G H I J K L M N O P Q R S T U V W X Y Z

Jamie N Commons - Lead Me Home tab

I learned this completely by ear (other than
seeing a video of him playing where I saw
the capo on 4th fret).So,please be kind if you
leave a comment! :) Hope it helps some!


Legend:

h = Hammer On 
p = Pull Off 



Capo 4th Fret- Standard Tuning


E------------------------------|-------------------------|
B-------3---3----------3--3----|----3----3---------3---3-|
G----2h3-2h3-0-2---2h3-2h3-2---|-2h3--2h3-0-2---2h3-2h3-2|
D---0----0---------0-----------|0-----0---------0--------|
A---0----0---------0-----------|0-----0---------0--------|
E------------------------------|-------------------------|



E------------------------------------|
B----3---3------3---3-------3---3----|
G--2---2---2---2-2h3-0-2--2---2---2--|
D------------0------------0----------|
A-0----0-----0------------0----------|
E-1----0-----------------------------|
[easiest to play the 1st fret on low E w/ thumb]

Lyrics:


Oh Lord live inside me, lead me on my way
Oh Lord live inside me, lead me on my way

E----------------------------|------------------------|
B-------3---3--------3---3---|----3----3-------3---3--|
G----2h3-2h3-2----2h3-2h3-2--|-2h3--2h3-2---2h3-2h3-2-|
D---0----0------0------------|0-----0-------0---------|
A---0----0------0------------|0-----0-------0---------|
E----------------------------|------------------------|

Lead me home
Lead me home

E----------------------------------------------|
B-----3---3----3---3-----3-----3-------3---3---|
G---2---2--2-2---2---2--2---2h3---0-2-2---2---2|
D---------------------0---------------0--------|
A--0--------0---------0---------------0--------|
E--1--------0----------------------------------|
 
Oh Lord in the darkness, lead me on my way
Oh Lord in the darkness, lead me on my way


E----------------------------|-----------------------|
B-------3---3--------3---3---|----3----3-------3---3-|
G----2h3-2h3-2----2h3-2h3-2--|-2h3--2h3-2---2h3-2h3-2|
D---0----0------0------------|0-----0-----0----------|
A---0----0------0------------|0-----0-----0----------|
E----------------------------|-----------------------|

Lead me home
Lead me home

E----------------------------------------------|
B-----3---3----3---3-----3-----3-------3---3---|
G---2---2--2-2---2---2--2---2h3---0-2-2---2---2|
D---------------------0---------------0--------|
A--0--------0---------0---------------0--------|
E--1--------0----------------------------------|
 
Hmmmmm
Hmmmmm

E-------------------------------------------------|
B----3---3----------3-------3-----3--------3---3--|
G--2---2---2-----00-0-0---2---2h3--0-2--2---2---2-|
D--------------2--2-2-0-----------------0---------|
A-0------------0------------------------0---------|
E-1------------0----------------------------------|

E-------------------------------------------------|
B----3---3----------3-------3-----3--------3---3--|
G--2---2---2-----00-0-0---2---2h3--0-2--2---2---2-|
D--------------2--2-2-0-----------------0---------|
A-0------------0------------------------0---------|
E-1------------0----------------------------------|
 
Oh Lord heaven's waitin', open up your door
Oh Lord heaven's waitin', open up your door

E----------------------------|---------------------------|
B-------3---3--------3---3---|----3----3--------3-----3--|
G----2h3-2h3-2----2h3-2h3-2--|-2h3--2h3--2--2h3---2h3---2|
D---0----0------0------------|0-----0-------0------------|
A---0----0------0------------|0-----0-------0------------|
E----------------------------|---------------------------|

Lead me home
Lead me home

E----------------------------------------------|
B-----3---3----3---3-----3-----3-------3---3---|
G---2---2--2-2---2---2--2---2h3---0-2-2---2---2|
D---------------------0------------------------|
A--0--------0---------0------------------------|
E--1--------0----------------------------------|
 
Lead me home
Lead me home

E----------------------------|-------------------------|
B-------3---3--------3---3---|----3----3--------3---3--|
G----2h3-2h3-2----2h3-2h3-2--|-2h3--2h3--0-2--2---2---2|
D---0----0------0------------|0-----0---------0--------|
A---0----0------0------------|0-----0---------0--------|
E----------------------------|-------------------------|

 
Lead me home
Lead me home

E---------------------|
B---------------------|
G-----------0---------|
D--3-----2--2-----0---|
A--0-----0--0-----0---|
E--1------------------|
Tap to rate this tab
# A B C D E F G H I J K L M N O P Q R S T U V W X Y Z