Song name
# A B C D E F G H I J K L M N O P Q R S T U V W X Y Z

Jamie N Commons - Lead Me Home tab

Learned this from watching Jamie's performance on Talking Dead. 
I haven't perfected Lead Me Home yet, but this tab should be a 
decent introduction to playing it.

Tune your guitar to Drop D, and slap a capo on the fourth fret. 
Hope this helps you learn such an awesome song.

Cheers!



Lead Me Home
Jamie N Commons

e|-----------------|-----------------|-----------------|-----------------|
B|-----------3-----|--------3--------|-----------3-----|--------3--------|
G|------2h3--------|---2h3-----2-----|------0h2--------|---2---------2---|
D|------0----------|------------0----|------0----------|--------------0--|
A|-----------------|-----------------|-----------------|-----------------|
D|0----------------|-----------------|0----------------|-----------------|

e|-----------------|-----------------|-----------------|-----------------|
B|-----------3-----|-------3---------|-----------------|-----------------|
G|------2h3--------|---2h3-----2-----|-----------------|-----------------|
D|------0----------|---0--------0----|-----------------|-----------------|
A|-----------------|-----------------|-----------------|-----------------|
D|0----------------|0----------------|0----------------|0----------------|

e|-----------------|-----------------|-----------------|-----------------|
B|-----------3-----|--------3--------|-----------3-----|--------3--------|
G|------2h3--------|---2h3-----2-----|------0h2--------|---0h2-----2-----|
D|------0----------|------------0----|------0----------|------------0----|
A|-----------------|-----------------|-----------------|-----------------|
D|3----------------|3----------------|2----------------|2----------------|

e|-----------------|-----------------|-----------------|-----------------|
B|-----------3-----|-----------------|-----------3-----|--------3--------|
G|------2h3--------|---2h3---3-0-2---|------2----------|---2-------2-----|
D|------0----------|-----------------|------0----------|---0--------0----|
A|-----------------|-----------------|-----------------|-----------------|
D|0----------------|-----------------|0----------------|-----------------|
Tap to rate this tab
# A B C D E F G H I J K L M N O P Q R S T U V W X Y Z