Song name
# A B C D E F G H I J K L M N O P Q R S T U V W X Y Z

Jamie T - So Lonely Was The Ballad tab

Jamie T
So Lonely Was the Ballad
sfc


Verse
C, Am, Em, F

although the above progression is correct, i prefer
C, Am, G, F


Interlude
C,                Am,              Em,              F
e----------------|----------------|----------------|-------------|
B----------------|----------------|----------------|-------------|
G----------------|----------------|----------------|-------------|
D---2-3-2---2-3-2|---2-3-2---2-3-2|---2-3-2---2-3-2|--5-3-2-0----|
A-3--------3-----|-3--------3-----|-3--------3-----|-3--------3--|
E----------------|----------------|----------------|-------------|

 C,               Am,              Em,              F
e----------------|----------------|----------------|-------------|
B----------------|----------------|----------------|-------------|
G----------------|----------------|----------------|-------------|
D---2-3-2---2-3-2|---2-3-2---2-3-2|---2-3-2---2-3-2|--2-3-5-320--|
A-3--------3-----|-3--------3-----|-3--------3-----|-3---------3-|
E----------------|----------------|----------------|-------------|


Chorus
G, Am, Em, D, C


Interlude 2 (1:31)
C, Am, G, F


end
Tap to rate this tab
 
# A B C D E F G H I J K L M N O P Q R S T U V W X Y Z