Song name
# A B C D E F G H I J K L M N O P Q R S T U V W X Y Z

Jamie T - If I Were A Boy tab

Watched the video and looked at what frets his hands are on. pretty sure the first part 
is 100% right.



Repeat throughout the song;

-------------------------------------------|
-------------------------------------------|
-----------5----5------------------7----7--|
--2---2----5----5------5---5-------7----7--|
--2---2--3----3--------5---5-----5---5-----|
0---0---------------3----3-----------------|



------------------------------------|
------------------------------------|
-----------5----5-------------------|
--2---2----5----5------5---5----0---|
--2---2--3----3--------5---5----2---|
0---0---------------3----3------2---|


bridge (2.12) is harder, something along the lines of picking these chords - correct me 
if i'm wrong;

-3--3--3--3-----|
-3--3--3--3-----|
----------2-----|
-2--1-----------|
-2--2--1--------|
-------2--------|


dedicated to Becky W
Tap to rate this tab
 
# A B C D E F G H I J K L M N O P Q R S T U V W X Y Z