Song name
# A B C D E F G H I J K L M N O P Q R S T U V W X Y Z

Jamie T - Calm Down Dearest tab

A possible guitar tab for a great song
tabbed by Theo F
feel free to comment on this tab-teo113@hotmail.co.uk

Verse
e--------------------------------------------------------------------------|
B--------------------------------------------------------------------------|
G----7----------12----11----9------------11---9---7------------------------|
D----7----------12----12----9------------11---9---7------------------------|
A----5----------10----9-----7------------9----7---5------------------------|
E--------------------------------------------------------------------------|


Chorus (reverb effect would suit this bit)
                It's heavy, it's on my miiiind...
e----------------------------------------0---------------------------------|
B----7-----------------------------------5---------------------------------|
G----7-----------(strum gently)----------6---------(strum gently)----------|
D----7-----------------------------------7---------------------------------|
A----5-----------------------------------7---------------------------------|
E----------------------------------------5---------------------------------|
Tap to rate this tab
# A B C D E F G H I J K L M N O P Q R S T U V W X Y Z