Song name
# A B C D E F G H I J K L M N O P Q R S T U V W X Y Z

Jamie Woon - Night Air chords

Highlighted       Show chord diagrams
-----------------------------------------------------------------------------
			     Night Air  -  Jamie Woon                    
-----------------------------------------------------------------------------
Tabbed by: John Collum
Email: john_collum@hotmail.co.uk

Tuning:EADGBe

This tab is based on the acoustic cover of night air Woon performed at Bestival : 
http://www.youtube.com/watch?v=5H0Kqi_6SxA&feature=related

The song follows the standard progression in the key of D. In the acoustic cover 
he plays the chord with the 7th but it works just as well minor.

I   - IV  -  V
Dm7 - Gm7 - Am7

Woon plays around with the structure of the chords a little so listen and watch 
the song to get the details for the chords.

    Dm7      Gm7      Am7      Dm7         
e|---5--------3--------5--------5-------------------------------------------|
B|---6--------3-(6)----5-(9)----6-------------------------------------------|
G|---5-(7)----3--------5--------5-(7)------------Repeat---------------------|
D|---7--------3--------5--------7-------------------------------------------|
A|---5--------5--------7--------5-------------------------------------------|
E|---5--------3--------5--------5-------------------------------------------|

At the end of each vocal line Woon plays around on the Dm7 and then tends to slide 
between the Gm7 and Am7


    Dm(7)      Gm7       Am7      Dm7         
e|---5---------3------/----5--------5------------------------|
B|---6---------3-(6)--/----5-(8)----6------------------------|
G|---7p5-------3------/----5--------5-(7)-------Repeat-------|
D|---7--7p5----3------/----5--------7------------------------|
A|---5---------5------/----7--------5------------------------|
E|---5---------3------/----5--------5------------------------|

Enjoy the tab. Please rate and contact me with any comments.

| /  slide up
| \  slide down
| h  hammer-on
| p  pull-off
| ~  vibrato
| +  harmonic
| x  Mute note
============================================================================
Tap to rate this tab
 
# A B C D E F G H I J K L M N O P Q R S T U V W X Y Z