Guitaretab - guitar tabs
Song name
# A B C D E F G H I J K L M N O P Q R S T U V W X Y Z

Jamie Woon - Spirals chords

Highlighted       Show chord diagrams
-----------------------------------------------------------------------------
			     Spirals  -  Jamie Woon
-----------------------------------------------------------------------------
Tabbed by: John Collum
Email: john_collum@hotmail.co.uk

Tuning:EADGBe

This tab is based on the acoustic cover of Spirals performed by Jamie Woon:
http://www.youtube.com/watch?v=foAyCD229R8

Woon plays around with the structure of the chords a little so listen and watch the song 
to get the details for the chords and for the picking and palm muting.

Verse
[ Tab from: http://www.guitaretab.com/j/jamie-woon/278183.html ]
    Dm7      Am7      Bm7      Dm7
e|---5--------0--------2--------5-------------------------------------------|
B|---6--------1--------3--------6-------------------------------------------|
G|---5--------0--(2)---2--(4)---5----------------Repeat---------------------|
D|---7--------2--------4--------7-------------------------------------------|
A|---5--------0--------2--------5-------------------------------------------|
E|---5--------0--------2--------5-------------------------------------------|

Chorus   (Final line of the chorus sometimes ends on Bm7 instead of Dm)

    A#       Am        Dm           or      Bm7
e|---6--------5--------10--------------------2----------|
B|---6--------5--------10--(11)--------------3----------|
G|---7--------5--------10---------Repeat-----2--(4)-----|
D|---8--------7--------12--------------------4----------|
A|---8--------7--------12--------------------4----------|
E|---6--------5--------10--------------------2----------|

Enjoy the tab. Please rate and contact me with any comments.

| /  slide up
| \  slide down
| h  hammer-on
| p  pull-off
| ~  vibrato
| +  harmonic
| x  Mute note
============================================================================
Related for Spirals chords
Spirals chords by Jamie Woon