Song name
# A B C D E F G H I J K L M N O P Q R S T U V W X Y Z

Jamies Elsewhere - The Mapmaker tab

This is my first tab so bear with me.  Tuning in drop C#.  It's not perfect but it's 
damn close. This is only one guitar so ya.  I'll try and get both up soon.
>slide down   -7-7>------7>-7-7>------5>-5-5>------5>-5-5>-------------------------|
G#-8>-8-8>-0000-8>-8-8>-0000-5>-5-5>-0000-5>-5-5>-0000--------------------|
C#-8>-8-8>-0000-8>-8-8>-0000-5>-5-5>-0000-5>-5-5>-0000--------------------|
           ****         ****         ****         ****

(CHORUS 1:27)2X

(BREAKDOWN 1:49)2X  (LEAD OVER BREAKDOWN IS 1ST VERESE)
D#------------------------------------------------------------------------|
A#------------------------------------------------------------------------|
F#------------------------------------------------------------------------|
C#------------------------------------------------------------------------|
G#-00000---0-00000-00000-00000--------------------------------------------|
C#-00000---0-00000-00000-00000--------------------------------------------|
   *****   * ***** ***** *****
(BRIDGE/INTERLUDE 2:00)
D#------------------------------------------------------------------------|
A#------------------------------------------------------------------------|
F#------------------------------------------------------------------------|
C#-10-------0-------10-------0--------------------------------------------|
G#-8--------0-------8--------0--------------------------------------------|
C#-8--------0-------8--------0--------------------------------------------|
   +        +       +        +

(CHORUS 2:22)6X

 You basicaly play it for the rest of the song. I think the last 2 times might be 
but I'm not sure.  It should work fine as it is.  So ya that's the song basically.  If you 
any suggestions feel free to comment or whatever. =)
Tap to rate this tab
 
# A B C D E F G H I J K L M N O P Q R S T U V W X Y Z