Jamies Elsewhere - Visions In Sleep tab

              Band: Jamies Elsewhere    Song: Visions In Sleep
                        

Tabbed by:Odie134
Email:emo_rowdy@hotmail.com

This is the first tab that i have tabed so comments please! ENJOI!

Tuning:C#G#C#F#A#D#


intro: Fades in
|-------------------------------------------------------------------------|
|-------------------------------------------------------------------------|
|-------------------------------------------------------------------------|
|-10/000-000-0-10/-000-000-10101010/----(figure out the pattern)----------|
|-8/-000-000-0-8/--000-000-8-8-8-8/---------------------------------------|
|-8/-000-000-0-8/--000-000-8-8-8-8/---------------------------------------|
pm   ... ... .     ... ...     

Verse:
|-------------------------------------------------------|
|-------------------------------------------11-11-11----|
|-------------------------------------------14-14-14----|
|------------------0-0-0------------------0-------------|
|------7h5---------0-0-0-------7h5--------0-------------|
|-0-875---0-10p87--0-0-0--0-875---0-10p87-0-------------|
pm                                        .
                                          
|--------------------------------------------------|
|--------------------------------------------------|
|--------------------------------------------------|
|-----------------0-0-0--55555-10101010------------|  (Play twice)
|------7h5--------0-0-0--33333-888888--------------|
|-0-875---0-10p87-0-0-0--------888888--------------|


Chorus:
|-------------------------------------------------------------------------|
|-------------------------------------------------------------------------|
|-------------------------------------------------------------------------|
|-000000000-3333333333-5555555555-333333333-------(play twice)------------|
|-000000000-3333333333-3333333333-111111111-------------------------------|
|-000000000-3333333333----------------------------------------------------|

|---------------------------------------|
|---------------------------------------|
|---------------------------------------|
|---------------------------------------|
|---------------------------------------|
|-000-000--000--000-000-000-000--000-00-|
pm... ...  ...  ... ... ... ...  ... ..

|-------------------------------------------------------------------------|
|-------------------------------------------------------------------------|
|-------------------------------(------------------------------------)----|
|-000-000--000--000-000-000-000--000-00-000-000--000--000-000-000-000-----|
|-000-000--000--000-000-000-000--000-00-000-000--000--000-000-000-000-----|
|-000-000--000--000-000-000-000--000-00-000-000--000--000-000-000-000-----|
pm... ...  ...  ... ... ... ...  ... .. ... ...  ...  ... ... ... ... 
  note:where the () are is what you keep playing after your done here^

Then:                                                           
|------------------------------------------------------|
|------------------------------------------------------|
|------------------------------------------------------|
|--------------------------000-000--000-0-7\8-0-8\10---|
|----12-13-8-12-7h8p7------000-000--000-0-7\8-0-8\10---|
|-000----------------10h12-000-000--000-0-7\8-0-8\10---|
pm...                      ... ...  ... .     .

|---------------------------|
|---------------------------|
|--------10p9---------------|
|------10----10-------------|
|-888-8---------101010-777--|
|-888-8---------101010-777--|
pm... .

Chorus again! These dreams are temporary!

e|-------------------------------------------------------------|
B|-------------------------------------------------------------|
G|-------------------------------------------------------------|
D|-33333333333-55555555555-000-000--000-0-000-000-000-000-000--|
A|-11111111111-33333333333-000-000--000-0-000-000-000-000-000--|
E|-------------------------000-000--000-0-000-000-000-000-000--|
pm                         ... ...  ... . ... ... ... ... ...

|---------------------------------------------|
|---------------------------------------------|
|---------------------------------------------|
|-3------5------3------5-----3------5---------|
|-1(12x)-3(12x)-3------5-----1(12x)-3(12x)----|
|---------------3(12x)-5(12x)-----------------|

|------------------------------------------------------------------|
|------------------------------------------------------------------|
|-7-------------7--------------7-----------------------------------|
|--53-353--------53-353---3-----53-353-----------------------0-0-0-|
|----5---5---------5---535-5*-----5---5-----------3----------0-0-0-|
|---------3563-------------------------3563----356-65-356-3--0-0-0-|

Chorus Again:

|-------------------------------------------------------------------------|
|-------------------------------------------------------------------------|
|-------------------------------------------------------------------------|
|-10/000-000-0-10/-000-000-10101010/--------------------------------------|
|-8/-000-000-0-8/--000-000-8-8-8-8/---------------------------------------|
|-8/-000-000-0-8/--000-000-8-8-8-8/---------------------------------------|
pm    ... ... .     ... ...      

Fades away!!                     THE END!
              Hope you enjoyed if any mistake please point out.
this tab is not 100% but its close, will update as soon i figure out more parts!



************************************
Legend:
| /   slide up
| \   slide down
| h   hammer-on
| p   pull-off
| *   harmonic
| .   Mute note
| b   Bend
************************************
Tap to rate this tab
 
# A B C D E F G H I J K L M N O P Q R S T U V W X Y Z