Guitaretab - guitar tabs
Song name
# A B C D E F G H I J K L M N O P Q R S T U V W X Y Z

Jamies Elsewhere - The Mapmaker tab

The Mapmaker
Jamies Elsewhere
C#G#C#F#A#D#

Intro
|--------------------------------|------------------------------|
|--------------------------------|------------------------------|
|---10-----9---/10-----7-----5---|---10-----9---/10-------------|
|-0---x3-0--x4----x3-0--x3-0--x3-|-0---x3-0--x4----x3-8----5----|
|-0-8----0-7---/8----0-5---0-3---|-0-8----0-7---/8----8-x8-5-x8-|
|-0------0-----------0-----0-----|-0------0-----------8----5----|


Verse?
GTR1
|----------------------------------------------------|
|----------------------10p0--------------------------|
|-------------10p0---------------7p0-----------------|
|-7p0-7p0-7p0------7p0------7p0------7p0-7p0-7p0-7p0-|
|----------------------------------------------------|
|----------------------------------------------------|

GTR2
|---------|
|---------|
|---------|
|---------|
|-0-xlots-|
|-0-------|

Pre Chorus
|---------------------------------------------|
|---------------------------------------------|
|---------------------------------------------|
|-8----5--------------------------------------|
|-8-x4-5-x4---5-------5-------5-------0-0-0-0-|
|-8----5--------8-5-8---8-5-8---8-5-8-0-0-0-0-|
[ Tab from: http://www.guitaretab.com/j/jamies-elsewhere/266188.html ]
Chorus
GTR1
|-13-13-13-12-12-12----------------------------|
|-------------------13-13-13-13-13-13----------|
|-------------------------------------14-14-14-|
|----------------------------------------------|
|----------------------------------------------|
|----------------------------------------------|

|-13-13-13-12-12-12---------------------------------------------------------------------------|
|-------------------13-13-13----------13-13---------------------------------------------------|
|----------------------------14-14-14-------14-14-12-12-12-12-14-14-14-14-10-10-10-10-9-9-9-9-|
|---------------------------------------------------------------------------------------------|
|---------------------------------------------------------------------------------------------|
|---------------------------------------------------------------------------------------------|

Verse 2
Both
|--------------|----|--------------|----|
|--------------|----|--------------|----|
|--------------|----|--------------|----|
|-7/-0--7-7/-0-|----|-5/-0--5-5/-0-|----|
|-8/-0--8-8/-0-|-x2-|-5/-0--5-5/-0-|-x2-| x2
|-8/-0--8-8/-0-|----|-5/-0--5-5/-0-|----|

Repeat Chorus
Repeat Verse 1 
Bridge
GTR1
|-------12~-------12~-|
|---------------------|
|------------10~------|
|-/10~----------------|
|---------------------|
|---------------------|

GTR2
|--------------------|
|--------------------|
|--------------------|
|-10----0----10----0-|
|-8-----0----8-----0-|
|-8-----0----8-----0-|

Repeat Chorus
Related for The Mapmaker tab
The Mapmaker chords by Jamies Elsewhere