Song name
# A B C D E F G H I J K L M N O P Q R S T U V W X Y Z

Jamiroquai - Virtual Insanity tab

-----------------------------------------------------------------------------
Virtual Insanity Acoustic    Jamiroquai
arranged by McIlave  link: http://www.youtube.com/watch?v=KCT2-agoLPg
-------------------------------------------------------------------------------
Tabbed by: Peter P Jones

Tuning: Standard

This is a fantastic take on jamiroquais classic, I couldnt find a tab for this anywhere 
I thought Id give it a go. Definitely not 100% perfect but it works nicely, enjoy.

 INTRO

e|-----0-------0------------------------------------------------------------0--|
B|-----0-------5-------0----------0--------1-------1------2-------------0------|
G|-----5-------5-------4----------0--------2-------2------2-------------5------| x2
D|-----5----4----------3------2--2--------2-------2------0-------------5-------|
A|--0-----5---------X------3---------------------------------------------------|
E|5---------------3-------------------2-2-----1-1----0-0-----0--3-4-5----------|

  VERSE

Same chords as the intro but strummed, look at the video to get the rythm
e|---------------------------------------------|
B|-0---5---0---0---1---1---2----------------0--|
G|-5---5---4---0---2---2---2----------------5--|
D|-5---4---3---2---2---2---0----------------5--|
A|-0---5---X---3---X---X---X----------------X--|
E|-5--------3-------2----1---0---0---3--4---5--|

And its a wonder.....

CHORUS

Again its best to look at the video to get the exact rythm
e|--0--0-0-0------0--0-0-0------------------------------------------------------------|
B|--1--1-1-1-----1--1-1-1---------0--0-0-0-----5--5-5-5-------------------------------|
G|--2--2-2-2-----1--1-1-1---------5--5-5-5-----5--5-5-5-------------------------------|
D|--2--2-2-2-----0--0-0-0---------5--5-5-5-----4--4-4-4-------------------------------|
A|--0--0-0-0-----2--2-2-2---------X--X-X-X-----5--5-5-5-------------------------------|
E|--------------------------------5--5-5 5--------------------------------------------|

Futures..        Made of                Virtual      Insan-ity

After 2 verses and 2 choruses comes the bridge
BRIDGE

e|----------------------------------------------|
B|--0---0-0-0-----0---------0---0--0--0--0--0---|
G|--4---5-5-5-----5---------5---5--5--5--5--5---|
D|--5---5-4-5----4----------4---4--4--4 --4--4--|
A|--X---X-X-X----X----------X---X--X--X--X--X---|
E|--5---5-5-5----5----------5---5--5--5--5--5---|

      Da   da da da  da


e|--------------------------------------------|
B|--0----1-0-1----0-------0----0--0--0--0--0--|
G|--1----1-1-1----1-------1----1--1--1--1--1--|
D|--0----0-0-0----0-------0----0--0--0--0--0--|
A|--2----2-2-2----2-------2----2--2--2--2--2--|
E|--------------------------------------------|

     Da   da da da  Da

e|--0----3-0-3----0--------0----0--0--0--0--0--|
B|--1----1-1-1----1--------1----1--1--1--1--1--|
G|--2----2-2-2----2--------2----2--2--2--2--2--|
D|--2----2-2-2----2--------2----2--2--2--2--2--|
A|--0----0-0-0----0--------0----0--0--0--0--0--|
E|---------------------------------------------|

e|----------------------------------|
B|---6-6-------1--1-----1--1--1--1--|
G|---5-5-------1--1-----1--1--1--1--|
D|---3-3-------0--0-----0--0--0--0--|
A|---5-5-------2--2-----2--2--2--2--|
E|----------------------------------|

One more chorus is played, then comes the outro

e|-------------------------------------------------------------------0--|
B|--------1--------3------0------------------------------------1----1---|
G|--------2--------4------5--------0--------0-----------------2------2--|
D|--------2--------3------5--------0--------2-----------------2---------|
A|--------0--------0------X--------2--------3-----------------0---------|
E|--1-1------4-4---------5--------3--------0-----------------1----------|

                                       Virtual  insanity  is what were   livin in

e|----------7--7-7-7--7--7------------------------------------------------------------|
B|--3------5--5-5-5--5--5-------------------------------------------------------------|
G|--4------5--5-5-5--5--5-------------------------------------------------------------|
D|--3------5--5-5-5--5--5-------------------------------------------------------------|
A|--0------X--X-X-X--X--X-------------------------------------------------------------|
E|--4------5--5-5-5---5--5------------------------------------------------------------|

Thanks to McIlave for his cover of the song, any feeback on the tab would be greatly appreciated.

************************************

| /   slide up
| \   slide down
| h   hammer-on
| p   pull-off
| ~   vibrato
| +   harmonic
| x   Mute note
| b   Bend
| pb  Pre-bend
| br  Bend release
| pbr Pre-bend release
| brb Bend release bend

************************************
Tap to rate this tab
 
# A B C D E F G H I J K L M N O P Q R S T U V W X Y Z