Jamiroquai - Bad Girls tab

e----------------------------------|
B--9--------7-------10-------7-----|
G--9--------8-------9--------8-----|
D--11-------9-------11-------9-----|
A----------------------------------|
E----------------------------------|

e----------------------------------|
B--9--------7-------10-------7-----|
G--9--------8-------9--------8-----|
D--11-------9-------11-------9-----|
A----------------------------------|
E----------------------------------|

e----------------------------------|
B--9--------7-------10-------7-----|
G--9--------8-------9--------8-----|
D--11-------9-------11-------9-----|
A----------------------------------|
E----------------------------------|

e----------------------------------|
B--9--------7-------10-------7-----|
G--9--------8-------9--------8-----|
D--11-------9-------11-------9-----|
A----------------------------------|
E----------------------------------|

e----------------------------------|
B--9--------7-------10-------7-----|
G--9--------8-------9--------8-----|
D--11-------9-------11-------9-----|
A----------------------------------|
E----------------------------------|

Reapeat as long as you want.
Tap to rate this tab
 
# A B C D E F G H I J K L M N O P Q R S T U V W X Y Z