Song name
# A B C D E F G H I J K L M N O P Q R S T U V W X Y Z

Jamiroquai - Rock Dust Light Star tab

------------------------------------------------------------------------------
	       	Jamiroquai - Rock Dust Light Star
------------------------------------------------------------------------------
  Tuning: Standard
 
  Synth intro
e|-12-15-14-----------------------------------------12-15-17~---7-5----------|
B|----------15--------12----------------------12-15--------------------------|
G|-------------14~----------12-14------------------------------------7-------|
D|-----------------------14-------12-11--------------------------------7-----|
A|--------------------------------------12~------------------------------7~--|
E|---------------------------------------------------------------------------|
  Guitar plays these two notes
e|---------------------------------------------------------------------------|
B|---------------------------------------------------------------------------|
G|--------14-----------------------------------------------------------------|
D|----11---------------------------------------------------------------------|
A|---------------------------------------------------------------------------|
E|---------------------------------------------------------------------------|

  Verse 1 (Riff 1)
e|----------------------------------------------2-----------------------|----|
B|-----8~----7----5~---3--1~--------------3~------3--1~----1-------3~---|----|
G|----------------------------------------------------------------------|-x2-|
D|--/9-9~--7-7--5-5~---4--2~------------4~----4------2~--2---2-2/4~-----|----|
A|----------------------------------------------------------------------|----|
E|----------------------------------------------------------------------|----|
  
  Riff 2
e|---------------------------------------------------------------------------|
B|---------------------------------------------------------------------------|
G|---------------------------------------------------------------------------|
D|-5h7-7~--5h7-7-5h7-7-5h7-7-7-7---------------------------------------------|
A|---------------------------------------------------------------------------|
E|---------------------------------------------------------------------------|
  Play this two times, then go to the chorus.

  Chorus
e|---------------------------|-----------------------------------------------|
B|---------------------------|-----------------------------------------------|
G|-5----7b9----7-------------|-----------------------------------------------|
D|-------------------5--7----|-----------------------------------------------|
A|---------------------------|-----------------------------------------------|
E|---------------------------|-----------------------------------------------|
  Rock, Dust, light, star.     He plays some sort of Am-chord here live, but 
                               on the album, I think it's just Riff 2.


  Verse 2. It's the same as verse 1, but the second time you play riff 2,
  play it longer. Leads into Chorus 2. That's kinda the same as 1.
  
  At the end of verse 3, he starts playing a solo.


  'There's no place left, for my wounded soul...'  
  Solo
e|----------------------0~---------------------------------------------------|
B|-------------------1~------------------------------------------------------|
G|-2h4-2---------------------------------------------------------------------|
D|-------2h4-2~---4~-------4--5h7~-7-7-7-7-----------------------------------|
A|---------------------------------------------------------------------------|
E|---------------------------------------------------------------------------|
  
  The band goes in 'Riff 2-mode' here.	
			    
e|---------------------------------------------------------------------------|
B|---------------------------10~-10~---13b15-13b15--10~--10~---10~----12-----|
G|------------/6~----7--9----------------------------------------------------|
D|-5h7--7~-------------------------------------------------------------------|
A|---------------------------------------------------------------------------|
E|---------------------------------------------------------------------------|

e|---------------------------------------------------------------------------|
B|-15b17-15b17~--15b17~--13--------------------------------------------------|
G|--------------------------14~--12---12--12-12~--11--9--7--5--2p0-----------|
D|-----------------------------------------------------------------2--0------|
A|----------------------------------------------------------------------3-0--|
E|--------------------------------------------------------------------------3|

e|-----|-Play this the------|------------------------------------------------|
B|-----|-same as the intro:-|------------------------------------------------|
G|-----|--------14----------|------------------------------------------------|
D|-----|----11--------------|------------------------------------------------|
A|-5~--|--------------------|------------------------------------------------|
E|-----|--------------------|------------------------------------------------|
  Band plays the chorus again. Guitar plays in the A minor pentatonic  scale.  
Can't really tab that.

  That's it.

************************************

| /   slide up
| \   slide down
| h   hammer-on
| p   pull-off
| ~   vibrato
| +   harmonic
| x   Mute note
| b   Bend
| pb  Pre-bend
| br  Bend release
| pbr Pre-bend release
| brb Bend release bend

************************************
Tap to rate this tab
 
# A B C D E F G H I J K L M N O P Q R S T U V W X Y Z