Song name
# A B C D E F G H I J K L M N O P Q R S T U V W X Y Z

Jamiroquai - Use The Force tab

Use the Force by Jamiroquai.
Brazilian influenced acid Jazz coming from Travelling Wihtout Moving, most known as the 
Jamiroquai's masterpiece of 1996. Here you got the tabs, finally, maybe when you hear to 
the song, there are a few variations, but sounds quite the same.



INTRO
e|-------------------|
B|3--3-----3--3------|
G|3--3-----3--3------| (x15)
D|3--3-----3--3------|
A|-------------------|
E|3--3-----3--3------|



VERSE
e|------------------|-----------------|
B|6-6--8----8-8-----|9--9----8--7-6---|
G|7-7--9----9-9-----|10-10---9--8-7---|
D|8-8--10---10-10---|11-11---10-9-8---|
A|------------------|-----------------|
E|------------------|-----------------|



CHORUS
e|----------|----------|
B|3----5----|6----5----|
G|3----5----|6----5----|
D|3----5----|6----5----|
A|----------|----------|
E|3----5----|6----5----|



e|-------------------|
B|3--3-----3--3------|
G|3--3-----3--3------|
D|3--3-----3--3------|
A|-------------------|
E|3--3-----3--3------|



VERSE
e|6-6--8----8-8-----|9--9----9--7-6---|
B|6-6--8----8-8-----|9--9----8--7-6---|
G|7-7--9----9-9-----|10-10---9--8-7---|
D|8-8--10---10-10---|11-11---10-9-8---|
A|------------------|-----------------|
E|------------------|-----------------|



CHORUS
e|----------|----------|
B|3----5----|6----5----|
G|3----5----|6----5----|
D|3----5----|6----5----|
A|----------|----------|
E|3----5----|6----5----|



e|------------------|-----------------|
B|6-6--8----8-8-----|9--9----8--7-6---|
G|7-7--9----9-9-----|10-10---9--8-7---|
D|8-8--10---10-10---|11-11---10-9-8---|
A|------------------|-----------------|
E|------------------|-----------------|



e|----------|----------|
B|3----5----|6----5----|
G|3----5----|6----5----|
D|3----5----|6----5----|
A|----------|----------|
E|3----5----|6----5----|



Tab by: Ozzy Alejandro Domínguez
Tap to rate this tab
 
# A B C D E F G H I J K L M N O P Q R S T U V W X Y Z