Song name
# A B C D E F G H I J K L M N O P Q R S T U V W X Y Z

Jamiroquai - Love Foolosophy tab

Artist: Jamiroquai
Album: High Times: Singles 1992-2006
Song: Love Foolosophy
Tab edited by Ismasd
These are only the chords played in the song. Play it with funky rhythm

Tuning

e
B
G
D
A
E

Intro and verse
   Bm7       Em7       Em7      Bm7
---6/7---|---6-----|---6-----|---6/7---|---|
---6/7---|---6/7---|---6/7---|---6/7---|---|
---6/7---|---6-----|---6-----|---6/7---|---|
---6/7---|---6/8---|---6/8---|---6/7---|---|
---------|---------|---------|---------|---|
---------|---------|---------|---------|---|

Chorus
   Bm7    Em       F#m7  Em      C#m7    Em       Em7   Em
---7------12---|---9-----12---|---9------12---|---7-----12---|
---7------12---|---10----12---|---9------12---|---8-----12---|
---7------12---|---9-----12---|---9------12---|---7-----12---|
---7------14---|---11----14---|---9------14---|---9-----14---|
---9-----------|---9----------|---11----------|---7----------|
---7-----------|---7----------|---9-----------|--------------|


************************************

| /   slide up
| \   slide down
| h   hammer-on
| p   pull-off
| ~   vibrato
| +   harmonic
| x   Mute note
| b   Bend
| pb  Pre-bend
| br  Bend release
| pbr Pre-bend release
| brb Bend release bend

************************************
Tap to rate this tab
 
# A B C D E F G H I J K L M N O P Q R S T U V W X Y Z