Song name
# A B C D E F G H I J K L M N O P Q R S T U V W X Y Z

Jamiroquai - Deeper Underground tab

this is my first tab, kept it easy.
this is just the verse and the start of the chorus, i can't work out the rest of
the chorus as its gets too fast and bass heavy...

E|------------------------------------------------|
B|------------------------------------------------|
G|------------------------------------------------|   x8
D|------------------------------------------------|
A|-----------------9-7-----11-7h9-7---------------|
E|--9-7h9-7-10-10------9-9----------9-7-----------|



E|------------------------------------------------|
B|------------------------------------------------|
G|------------------------11-9--------------------|   
D|--11-11------10---7-----11-9--------------------|
A|--11-11------10---7-----9--7--------------------|
E|--9--9-------8----5-----------------------------|




Tap to rate this tab
# A B C D E F G H I J K L M N O P Q R S T U V W X Y Z