Song name
# A B C D E F G H I J K L M N O P Q R S T U V W X Y Z

Jamiroquai - Virtual Insanity tab

By: Johan Carĝe
Soyasoyzz@hotmail.com

Verse and Intro

Sometimes it hits an extra Ebm7

     Ebm7 - G#9 - C#maj - F#maj - Cm7 - F9 - Bbm7 - (Ebm7)

e|-------------------------------------------------------------------------|
B|-------------------------------------------------------------------------|
G|--11------11----10------10------8-----8-----6------(11)------------------|
D|--11------10----10------8-------8-----7-----6------(11)------------------|
A|----------11------------9-------------8----------------------------------|
E|--11------------9---------------8-----------6------(11)------------------|

Chorus

    G#m7 - Bb7 - Ebm7 - Bb7
e|-------------------------------------------------------------------------|
B|---------6------7------6-------------------------------------------------|
G|---4-----7------6------7-------------------------------------------------|
D|---4-----6------8------6-------------------------------------------------|
A|----------------6--------------------------------------------------------|
E|---4-----6-------------6-------------------------------------------------|

Listen for timing



Tap to rate this tab
 
# A B C D E F G H I J K L M N O P Q R S T U V W X Y Z