Song name
# A B C D E F G H I J K L M N O P Q R S T U V W X Y Z

Jamisonparker - Here And Now tab

-------------------------------------------------------------------------------
	                 The Here And Now - JamisonParker
-------------------------------------------------------------------------------
Tabbed by: DyingToLive623
Email:Oh_Hello123@hotmail.com

Tuning:Standard

Okay so, this is my first tab ever. JamisonParker is my favorite band, and I'm sick of not
having tabs for them, so I decided to try to make one myself. I know this isn't totally
accurate, but I guess it's better than nothing.



Intro/Verse

e|---------------------------------------------------------------------------|
B|---------------------------------------------------------------------------|
G|---------------------------------------------------------------------------|
D|--9-9-9-9-9-9-9-9--9-9-9-9-9-9-9-9--7-7-7-7-7-7-7-7--7-7-7-7-7-7-7-7-------|
A|--9-9-9-9-9-9-9-9--9-9-9-9-9-9-9-9--7-7-7-7-7-7-7-7--7-7-7-7-7-7-7-7-------|
E|--7-7-7-7-7-7-7-7--7-7-7-7-7-7-7-7--5-5-5-5-5-5-5-5--5-5-5-5-5-5-5-5-------|
                                                                              
P.M.------------------------------------------------------------------| 2x        
                                                                                   
e|---------------------------------------------------------------------------|
B|---------------------------------------------------------------------------|
G|---------------------------------------------------------------------------|
D|--2-2-2-2-2-2-2-2--4-4-4-4-4-4-4-4--6-6-6-6-6-6-6-6--6-6-6-6-6-6-6-6-------| 
A|--2-2-2-2-2-2-2-2--4-4-4-4-4-4-4-4--6-6-6-6-6-6-6-6--6-6-6-6-6-6-6-6-------|
E|--0-0-0-0-0-0-0-0--2-2-2-2-2-2-2-2--4-4-4-4-4-4-4-4--4-4-4-4-4-4-4-4-------|

P.M.------------------------------------------------------------------|


"I can see the truth, in your eyes..."
e|---------------------------------------------------------------------------|
B|---------------------------------------------------------------------------|
G|---------------------------------------------------------------------------|
D|--9-----------------7----------------9----------------7--------------------|
A|--9-----------------7----------------9----------------7--------------------|
E|--7-----------------5----------------7----------------5--------------------|

e|---------------------------------------------------------------------------|
B|---------------------------------------------------------------------------|
G|---------------------------------------------------------------------------|
D|--9------------------7---------------6----------------7--------------------|
A|--9------------------7---------------6----------------7--------------------|
E|--7------------------5---------------4----------------5--------------------|


Chorus
e|---------------------------------------------------------------------------|
B|---------------------------------------------------------------------------|
G|---------------------------------------------------------------------------|
D|--9-9-9-9-9-9-9-9--7-7-7-7-7-7-7-7--9-9-9-9-9-9-9-9--7-7-7-7-7-7-7-7-------|
A|--9-9-9-9-9-9-9-9--7-7-7-7-7-7-7-7--9-9-9-9-9-9-9-9--7-7-7-7-7-7-7-7-------|
E|--7-7-7-7-7-7-7-7--5-5-5-5-5-5-5-5--7-7-7-7-7-7-7-7--5-5-5-5-5-5-5-5-------|  
                                                                                    
P.M.------------------------------------------------------------------|  2x
                                                                               
e|---------------------------------------------------------------------------|
B|---------------------------------------------------------------------------|
G|---------------------------------------------------------------------------|
D|--9-9-9-9-9-9-9-9--11-11-11-11-11-11-11-11--7-7-7-7-7-7-7-7-7-7-7-7-7-7-7-7|
A|--9-9-9-9-9-9-9-9--11-11-11-11-11-11-11-11--7-7-7-7-7-7-7-7-7-7-7-7-7-7-7-7|
E|--7-7-7-7-7-7-7-7--9--9--9--9--9--9--9--9---5-5-5-5-5-5-5-5-5-5-5-5-5-5-5-5|

P.M.-------------------------------------------------------------------------|


"Through the deafening, and the broken screams..."
e|---------------------------------------------------------------------------|
B|---------------------------------------------------------------------------|
G|---------------------------------------------------------------------------|
D|--9-9-9-9-9-9-9-9--9-9-9-9-9-9-9-9--7-7-7-7-7-7-7-7--7-7-7-7-7-7-7-7-------|
A|--9-9-9-9-9-9-9-9--9-9-9-9-9-9-9-9--7-7-7-7-7-7-7-7--7-7-7-7-7-7-7-7-------|
E|--7-7-7-7-7-7-7-7--7-7-7-7-7-7-7-7--5-5-5-5-5-5-5-5--5-5-5-5-5-5-5-5-------|

P.M.------------------------------------------------------------------|

e|---------------------------------------------------------------------------|
B|---------------------------------------------------------------------------|
G|---------------------------------------------------------------------------|
D|--9-9-9-9-9-9-9-9--9-9-9-9-9-9-9-9--7--------------------------------------|
A|--9-9-9-9-9-9-9-9--9-9-9-9-9-9-9-9--7--------------------------------------|
E|--7-7-7-7-7-7-7-7--7-7-7-7-7-7-7-7--5--------------------------------------|

P.M.--------------------------------|
Tap to rate this tab
# A B C D E F G H I J K L M N O P Q R S T U V W X Y Z