Song name
# A B C D E F G H I J K L M N O P Q R S T U V W X Y Z

Jamisonparker - Best Mistake tab

Tabbed by: TheIntentToStartFire
http://www.myspace.com/act7scene8

Artist: JamisonParker
Song: Best Mistake
Tuning: Drop D

Intro riff
e|--10------9------9------9-------10----10-----|
B|-----10-----10-----10-----10-------10----10--|
G|--------7------7------7------7---------------|
D|---------------------------------------------|
A|---------------------------------------------|
D|---------------------------------------------|

Rythm/ verse I
e|--------------------------------------------------|
B|--------------------------------------------------|
G|--------------------------------------------------|
D|-4-4-4-5-5-5-5-5-5-5-5/-9-9-9-9-9-9-7-7-7-7-7-7---|
A|-5-5-5-5-5-5-5-5-5-5-5/-9-9-9-9-9-9-7-7-7-7-7-7---|
D|-4-4-4-5-5-5-5-5-5-5-5/-9-9-9-9-9-9-7-7-7-7-7-7---|

Pre-chorus
"From the lack of sleep..."
e|----------------------------------------------|
B|----------------------------------------------|
G|----------------------------------------------|
D|-5~---99-7---7-7--5~---99-7---7-7----|X2|-----|
A|-5~---99-7---7-7--5~---99-7---7-7-------------|
D|-5~---99-7---7-7--5~---99-7---7-7-------------|

Chorus
"We're not sleeping..."
e|--------------------------------------------------------------------------|
B|--------------------------------------------------------------------------|
G|------------------------4-4-4-4-4-4-4-4-----------------------------------|
D|-5-5-5-5-5-5-5-5-5-5-5--4-4-4-4-4-4-4-4--5-5-5-5-5-5-5-5/-9-9-9-9-9-9-9-9-|
A|-5-5-5-5-5-5-5-5-5-5-5--2-2-2-2-2-2-2-2--5-5-5-5-5-5-5-5/-9-9-9-9-9-9-9-9-|
D|-5-5-5-5-5-5-5-5-5-5-5-------------------5-5-5-5-5-5-5-5/-9-9-9-9-9-9-9-9-|

Rythm/ verse II
e|--------------------------------------------------|
B|--------------------------------------------------|
G|--------------------------------------------------|
D|-4-4-4-5-5-5-5-5-5-5-5/-9-9-9-9-9-9-7-7-7-7-7-7---|
A|-5-5-5-5-5-5-5-5-5-5-5/-9-9-9-9-9-9-7-7-7-7-7-7---|
D|-4-4-4-5-5-5-5-5-5-5-5/-9-9-9-9-9-9-7-7-7-7-7-7---|

Pre-chorus II
"Let's shake & burn..."
e|---------------------------------------------|
B|---------------------------------------------|
G|--77-6h7-7~--9-9-9-11-11-9-9---77---|X5|-----|
D|--00-0-0-0~--0-0-0-0--0--0-0---00------------|
A|---------------------------------------------|
D|---------------------------------------------|

Chorus
"We're not sleeping..."
e|--------------------------------------------------------------------------|
B|--------------------------------------------------------------------------|
G|------------------------4-4-4-4-4-4-4-4-----------------------------------|
D|-5-5-5-5-5-5-5-5-5-5-5--4-4-4-4-4-4-4-4--5-5-5-5-5-5-5-5/-9-9-9-9-9-9-9-9-|
A|-5-5-5-5-5-5-5-5-5-5-5--2-2-2-2-2-2-2-2--5-5-5-5-5-5-5-5/-9-9-9-9-9-9-9-9-|
D|-5-5-5-5-5-5-5-5-5-5-5-------------------5-5-5-5-5-5-5-5/-9-9-9-9-9-9-9-9-|

Solo
e|------10/-17~----15-14-------------17~---15-14-------|
B|---10------------------15~---14-15-------------15~---|
G|-7---------------------------------------------------|
D|-----------------------------------------------------|
A|-----------------------------------------------------|
D|-----------------------------------------------------|

Chorus
"We're not sleeping..."
e|--------------------------------------------------------------------------|
B|--------------------------------------------------------------------------|
G|------------------------4-4-4-4-4-4-4-4-----------------------------------|
D|-5-5-5-5-5-5-5-5-5-5-5--4-4-4-4-4-4-4-4--5-5-5-5-5-5-5-5/-9-9-9-9-9-9-9-9-|
A|-5-5-5-5-5-5-5-5-5-5-5--2-2-2-2-2-2-2-2--5-5-5-5-5-5-5-5/-9-9-9-9-9-9-9-9-|
D|-5-5-5-5-5-5-5-5-5-5-5-------------------5-5-5-5-5-5-5-5/-9-9-9-9-9-9-9-9-|

Outro
e|----------------------------------------------|--------------------------|
B|------------------------------------|END-ON|--|------5-------5-----------|
G|-7-7-7-7-7-7-7-7-----------------------7~~~---|----7---7---7---7---7--7~-|
D|-x-x-x-x-x-x-x-x---5-5-5-5-7-7-7-7-----x------|--7-------7-------7----5~-|
A|-5-5-5-5-5-5-5-5-0-5-5-5-5-7-7-7-7-----5~~~---|-----------------------5~-|
D|-----------------0-5-5-5-5-7-7-7-7------------|--------------------------|

& There you go.
This is my first tab.
I had a request, so I thought I'd give this a try.
Rate it, please!


E For Explosion is amazing, but it isn't the same.
Tap to rate this tab
# A B C D E F G H I J K L M N O P Q R S T U V W X Y Z