Song name
# A B C D E F G H I J K L M N O P Q R S T U V W X Y Z

Jamisonparker - Dear Everybody tab

-------------------------------------------------------------------------------
			     DEAR EVERYBODY - Jamsion Parker
-------------------------------------------------------------------------------
Tabbed by: Evan Reyes	
Email: evanreyes2951@yahoo.com

Tuning: Standard (EADGBe)

No strumming help here, as with all of my tabs

Intro and Verse:
e|----------------|
B|----------------|
G|-------12---8---|
D|---8---12---8---|
A|---8---10---6---|
E|---6------------|

Chorus:
e|--------------------|
B|--------------------|
G|-----------8---10---|
D|---8---3---8---10---|
A|---8---3---6---8----|
E|---6---1------------|

Solo (if you can call it that):
same intro/verse chord progression with this played over it
e|----------------|
B|---11--10--11---|
G|----------------|
D|----------------|
A|----------------|
E|----------------|
Tap to rate this tab
# A B C D E F G H I J K L M N O P Q R S T U V W X Y Z