Guitaretab - guitar tabs
Song name
# A B C D E F G H I J K L M N O P Q R S T U V W X Y Z

Jamisonparker - Paper Rock Scissors Acoustic tab

Mxtabs [http://www.mxtabs.net]
JamisonParker
Paper, Rock, Scissors
Acoustic Version from
www.thisisnotemo.com

Tune Down  Step.           |



VERSES

  1 + 2 + 3 + 4 +   1 + 2 + 3 + 4 +   1 + 2 + 3 + 4 +   1 + 2 + 3 + 4 +  
|-----------------|-----------------|-----------------|-----------------|
|-----------------|-----------------|-----------------|-----------------|
|-4-4-4-4---------|-----------------|-4-4-4-4---------|-----------------| 4x
|-4-4-4-4-4-4-4-4-|-4-4-4-4-4-2-2-2-|-4-4-4-4-4-4-4-4-|-4-4-4---2-2-2-2-|
|-2-2-2-2-4-4-4-4-|-2-2-2-2-2-2-2-2-|-2-2-2-2-4-4-4-4-|-2-2-2-2-2-2-2-2-|
|---------2-2-2-2-|-4-4-4-4-4-0-0-0-|---------2-2-2-2-|-4-4-4-0-0-0-0-0-|

P.M.--------------------------------------------------------------------|



  1 + 2 + 3 + 4 +   1 + 2 + 3 + 4 +   1 + 2 + 3 + 4 +   1 + 2 + 3 + 4 +
|-----------------|-----------------|-----------------|-----------------|
|-----------------|-----------------|-----------------|-----------------|
|-4---4-4---------|-----------------|-4---4-4---------|-----------------|
|-4---4-4-4---4-4-|-4---4-4-2-2-2-2-|-4---4-4-4---4-4-|-4-4-4-2---2-2-2-|
|-2---2-2-4---4-4-|-2---2-2-2-2-2-2-|-2---2-2-4---4-4-|-2-2-2-2---2-2-2-|
|---------2---2-2-|-4---4-4-0-0-0-0-|---------2---2-2-|-4-4-4-0---0-0-0-|


                                                       
						       Half Bar

  1 + 2 + 3 + 4 +   1 + 2 + 3 + 4 +   1 + 2 + 3 + 4 +   1 + 2 + 
|-----------------|-----------------|-----------------|---------|
|-----------------|-----------------|-----------------|---------|
|-4---4-4---------|-----------------|-4---4-4---------|-4-4-4-4-|
|-4---4-4-4---4-4-|-4---4-4-2-2-2-2-|-4---4-4-4---4-4-|-2-2-2-2-|
|-2---2-2-4---4-4-|-2---2-2-2-2-2-2-|-2---2-2-4---4-4-|-2-2-2-2-|
|---------2---2-2-|-4---4-4-0-0-0-0-|---------2---2-2-|-0-0-0-0-|



  1 + 2 + 3 + 4 +   1 + 2 + 3 + 4 +   1 + 2 + 3 + 4 + 
|-----------------|-----------------|-----------------|
|-----------------|-----------------|-----------------|
|-4---4-4---------|-4-4-4-4-4-4-4-4-|-4-4-4-4-4-4-4-4-|
|-4---4-4-4---4-4-|-2-2-2-2-2-2-2-2-|-2-2-2-2-2-2-2-2-|
|-2---2-2-4---4-4-|-2-2-2-2-2-2-2-2-|-2-2-2-2-2-2-2-2-|
|---------2---2-2-|-0-0-0-0-0-0-0-0-|-0-0-0-0-0-0-0-0-|





CHORUS
  1 + 2 + 3 + 4 +   1  +  2  +  3  +  4  +
|-----------------|-------------------------|
|-----------------|-------------------------|
|-4-4-4-4-4-4-4-4-|-11-11-11-11-11-11-11-11-|
|-4-4-4-4-4-4-4-4-|-11-11-11-11-11-11-11-11-|
|-2-2-2-2-2-2-2-2-|-9--9--9--9--9--9--9--9--|
|-----------------|-------------------------|

  1  +  2  +  3  +  4  +    1 + 2 + 3 + 4 + 
|-------------------------|-----------------|
|-------------------------|-----------------|
|-11-11-11-11-11-11-11-11-|-----------------|
|-9--9--9--9--9--9--9--9--|-9-9-9-9-9-9-9-9-|
|-11-11-11-11-11-11-11-11-|-7-7-7-7-7-7-7-7-|
|-------------------------|-7-7-7-7-7-7-7-7-|





PART AFTER SECOND CHORUS

[ Tab from: http://www.guitaretab.com/j/jamisonparker/90636.html ]
  1 + 2 + 3 + 4 +   1 + 2 + 3 + 4 +   1 + 2 + 3 + 4 + 
|-----------------|-----------------|-----------------|
|-----------------|-----------------|-----------------|
|-4---4---4-4-4---|-----------------|-8---8---8-8-8---|
|-4---4---4-4-4---|-4---4---4-4-4---|-6---6---6-6-6---|
|-2---2---2-2-2---|-4---4---4-4-4---|-6---6---6-6-6---|
|-----------------|-2---2---2-2-2---|-4---4---4-4-4---|


  1 + 2 + 3 + 4 +   1 + 2 + 3 + 4 +   1 + 2 + 3 + 4 +
|-----------------|-----------------|-----------------|
|-----------------|-----------------|-----------------|
|-4---4---4-4-4---|-4---4---4-4-4---|-----------------|
|-2---2---2-2-2---|-4---4---4-4-4---|-4---4---4-4-4---|
|-2---2---2-2-2---|-2---2---2-2-2---|-4---4---4-4-4---|
|-0---0---0-0-0---|-----------------|-2---2---2-2-2---|


  1 + 2 + 3 + 4 +   1 + 2 + 3 + 4 + 
|-----------------|-----------------|
|-----------------|-----------------|
|-----------------|-4---4---4-4-4---|
|-4---4---4-4-4---|-2---2---2-2-2---|
|-2---2---2-2-2---|-2---2---2-2-2---|
|-4---4---4-4-4---|-0---0---0-0-0---|




  1 + 2 + 3 + 4 +   1 + 2 + 3 + 4 +   1 + 2 + 3 + 4 +   1 + 2 + 3 + 4 +
|-----------------|-----------------|-----------------|-----------------|
|-----------------|-----------------|-----------------|-----------------|
|-4-------4---4-4-|-----------------|-----------------|-4-------4---4-4-|
|-4-------4---4-4-|-4-------4---4-4-|-6-------6---6-6-|-2-------2---2-2-|
|-2-------2---2-2-|-4-------4---4-4-|-6-------6---6-6-|-2-------2---2-2-|
|-----------------|-2-------2---2-2-|-4-------4---4-4-|-0-------0---0-0-|
 

  1 + 2 + 3 + 4 +   1  +  2  +  3  +  4  +
|-----------------|-------------------------|
|-----------------|-------------------------|
|-4-------4---4-4-|-11----------11----11-11-|
|-4-------4---4-4-|-11----------11----11-11-|
|-2-------2---2-2-|-9-----------9-----9--9--|
|-----------------|-------------------------|


  1  +  2  +  3  +  4  +    1 + 2 + 3 + 4 + 
|-------------------------|-----------------|
|-------------------------|-----------------|
|-11----------11----11-11-|-----------------|
|-9-----------9-----9--9--|-9-------9---9-9-|
|-11----------11----11-11-|-7-------7---7-7-|
|-------------------------|-7-------7---7-7-|




BRIDGE

  1 + 2 + 3 + 4 +   1 + 2 + 3 + 4 + 
|-----------------|-----------------|
|-----------------|-----------------|
|-4-4-4-4-4-4-4-4-|-----------------|
|-4-4-4-4-4-4-4-4-|-4-4-4-4-4-4-4-4-|
|-2-2-2-2-2-2-2-2-|-4-4-4-4-4-4-4-4-|
|-----------------|-2-2-2-2-2-2-2-2-|


  1 + 2 + 3 + 4 +   1 + 2 + 3 + 4 + 
|-----------------|-----------------|
|-----------------|-----------------|
|-----------------|-----------------|
|-6-6-6-6-6-6-6-6-|-2-2-2-2-2-2-2-2-|
|-6-6-6-6-6-6-6-6-|-2-2-2-2-2-2-2-2-|
|-4-4-4-4-4-4-4-4-|-0-0-0-0-0-0-0-0-|


THIS IS MY FIRST TAB I'VE PUT OUT!  I'M PRETTY CONFIDENT IN 
IT!  IF YOU HAVE ANY SUGGESTIONS OR JUST WANT TO TELL ME HOW 
TERRIBLE OR HOW GREAT THIS TAB IS PLEASE DO SO BY EMAIL AT

austin_0_4@hotmail.com

THANK YOU!
Related for Paper Rock Scissors Acoustic tab