Song name
# A B C D E F G H I J K L M N O P Q R S T U V W X Y Z

Jamisonparker - I Should Mean More tab

-------------------------------------------------------------------------------
		      I Should Mean More - JamisonParker
-------------------------------------------------------------------------------
Tabbed by:DyingToLive623
Email:Oh_Hello@hotmail.com

Tuning:Standard

Okay so......This song only seems to be only two chords repeated throughout the whole song..
Yeah...

e|---------------------------------------------------------------------------|
B|---------------------------------------------------------------------------|
G|--4-4-4-4--4-4-4-4--4-4-4-4--4-4-4-4---------------------------------------|
D|--4-4-4-4--4-4-4-4--4-4-4-4--4-4-4-4--2-2-2-2--2-2-2-2--2-2-2-2--2-2-2-2---|
A|--2-2-2-2--2-2-2-2--2-2-2-2--2-2-2-2--2-2-2-2--2-2-2-2--2-2-2-2--2-2-2-2---|
E|--------------------------------------0-0-0-0--0-0-0-0--0-0-0-0--0-0-0-0---|

                      Just repeat throughout the whole song
Tap to rate this tab
 
# A B C D E F G H I J K L M N O P Q R S T U V W X Y Z