Song name
# A B C D E F G H I J K L M N O P Q R S T U V W X Y Z

Jan Antonin Losy - Suite No 3 - 2nd Movement - Aria tab

----------------------------------------
measure 6 - Ab changed to A (3rd string)
----------------------------------------

Time signature: 4/4
Tempo: Moderato

   |       |       |       |         |       |       |       |
E|-0------)0---------------5-------|-3-------1-------0-------0-------|
B|--------(1-----------------------|-----------------1---------------|
G|*-------)2-----------------------|-----------------0---------------|
D|*-------(2---------------3-------|-2-------0-----------------------|
A|--------)0-----------------------|-----------------3---------------|
E|---------------------------------|---------------------------------|

   |       |       |       |         |       |       |       |
E|---------0-----------------------|-------------0---0---------------|
B|-3-----------3---3p1-----0-------|-3---------------0---------------|
G|-----------------------------2---|-2---------------1--------------*|
D|---------------------------------|-3---------------2--------------*|
A|-2---------------0---------------|---------------------------------|
E|---------------------------------|---------------------------------|

   |       |       |       |         |       |       |       |
E|-0-----------------------0-------|---------------------------------|
B|-0-------1-------3-----------3---|-3p1---------0---1-------1-------|
G|*1-------------------------------|-----------------2---------------|
D|*2-------------------------------|-----------------2---------------|
A|---------0-------2---------------|-0---------------0---------------|
E|---------------------------------|---------------------------------|

   |       |       |       |         |       |       |       |
E|(1-------3--p1---0---------------|---------------------------------|
B|)3-----------------------3-------|-5p3---------1---1---------------|
G|(2-------------------------------|-0---------------0---------------|
D|)0-----------------------3-------|-----------------2---------------|
A|-----------------3---------------|-----------------3---------------|
E|---------------------------------|---------------------------------|

   |       |       |       |         |       |       |       |
E|)0-------3------(1-------0-------|---------------------------------|
B|(1--------------)3-----------3---|-3p1---------0---1-------1-------|
G|)0--------------(2---------------|-----------------2---------------|
D|(2--------------)0---------------|-2---------------2---------------|
A|)3-------------------------------|-----------------0---------------|
E|---------------------------------|---------------------------------|

   |       |       |       |         |       |       |       |
E|-1-------0-----------0-----------|---------------------------------||
B|-3-----------3---3-------1--p0---|-1p0h1p0h1p0---------------------||
G|-2---------------1---------------|-------------2-1-2--------------*||
D|-0---------------2---------------|-----------------2--------------*||
A|---------------------------------|-----------------0---------------||
E|---------------------------------|-0-------------------------------||
Tap to rate this tab
 
# A B C D E F G H I J K L M N O P Q R S T U V W X Y Z