Song name
# A B C D E F G H I J K L M N O P Q R S T U V W X Y Z

Jan Antonin Losy - Suite No 3 - 1st Movement - Prelude tab

Tempo: Allegro

   |       |       |       |         |       |       |       |
E|-0-----------------------0-------|---------------------------------|
B|---------1-----------------------|-------------------------1-------|
G|-----------------2---------------|-----------------2---------------|
D|---------------------------------|---------2-----------------------|
A|---------------------------------|-0-------------------------------|
E|---------------------------------|---------------------------------|

   |       |       |       |         |       |       |       |       |
E|-0-----------------------0-------|-----------------------------------------|
B|---------------------------------|-0-------3-----------------------1-------|
G|-------------2---2p1-------------|-----------------------------------------|
D|---------------------------------|-------------------------2---------------|
A|---------------------------------|-----------------0-----------------------|
E|---------------------------------|-----------------------------------------|

   |       |       |       |         |       |       |       |
E|---------------------------------|---------------------------------|
B|-1p0-------------0---------------|---------2-------3---------------|
G|-------------2-------------------|-0-------------------------------|
D|-------------------------2-------|-------------------------0-------|
A|---------------------------------|---------------------------------|
E|---------------------------------|---------------------------------|

   |       |       |       |         |       |       |       |
E|---------------------------------|-------------------------0-------|
B|-----------------3---------------|-----------------3---------------|
G|---------2-----------------------|---------0-----------------------|
D|-3-------------------------------|---------------------------------|
A|-----------------------------3---|-3p2-----------------------------|
E|---------------------------------|---------------------------------|

   |       |       |       |         |       |       |       |
E|-----------------0-------0h2-----|-----------------3---------------|
B|---------1-----------------------|---------0-----------------------|
G|---------------------------------|-0-------------------------------|
D|---------------------------------|-----------------------------3---|
A|-0-------------------------------|---------------------------------|
E|---------------------------------|---------------------------------|

   |       |       |       |         |       |       |       |
E|---------3---------------3-------|-----------------1---------------|
B|-----------------1---------------|---------1---------------0-------|
G|---------------------------------|---------------------------------|
D|-3p2-----------------------------|-0-------------------------------|
A|---------------------------------|---------------------------------|
E|---------------------------------|---------------------------------|

   |       |       |       |         |       |       |       |
E|-----------------0---------------|---------------------------------|
B|---------0-----------------------|-----------------3---------------|
G|-------------------------2-------|---------2---------------2p1-----|
D|---------------------------------|---------------------------------|
A|-3-------------------------------|-2-------------------------------|
E|---------------------------------|---------------------------------|

   |       |       |       |         |       |       |       |
E|-----------------1-------0h1p0---|-----------------0-------5-------|
B|---------1-----------------------|---------------------------------|
G|---------------------------------|-0-------------------------------|
D|---------------------------------|---------3-----------------------|
A|-0-------------------------------|---------------------------------|
E|---------------------------------|---------------------------------|

   |       |       |       |         |       |       |       |       |
E|-------------------------4-------|-----------------0-------5-----------3---|
B|-5p3-------------0---------------|-----------------------------------------|
G|---------------------------------|-----------------------------------------|
D|---------2-----------------------|-2p0-------------------------------------|
A|---------------------------------|---------4-------------------------------|
E|---------------------------------|-----------------------------------------|

   |       |       |       |         |       |       |      
E|-3p2-----------------------------|---------2---------------|
B|---------------------------------|-3-----------------------|
G|-------------------------2-------|-------------------------|
D|---------0-------4---------------|-------------------------|
A|---------------------------------|---------------------3---|
E|---------------------------------|-------------------------|

   |       |       |       |         |       |       |       |
E|-----------------3-------3p1-----|---------1-------1p0-------------|
B|---------3-----------------------|-------------------------1-------|
G|---------------------------------|---------------------------------|
D|---------------------------------|---------------------------------|
A|-3p2-----------------------------|-3-------------------------------|
E|---------------------------------|---------------------------------|

   |           |                 |           |              |
E|-1-p0--------------------0--------------------------------------|
B|-------3--1-----1--3-p0-----3-----3-----1-----------3-----------|
G|-------------0-----------------1-----2-----0-----0--------------|
D|----------------------------------------------3-----------0-----|
A|----------------------------------------------------------------|
E|----------------------------------------------------------------|
               \-------6------/              \--3--/


   |       |       |       |         |       |       |       |
E|---------------------------------|---------------------------------|
B|-----------------3---------------|-3p1-----0-----------------------|
G|---------1---------------2-------|---------2-------2p1-------------|
D|-2-------------------------------|---------2---------------0-------|
A|---------------------------------|---------------------------------|
E|---------------------------------|---------------------------------|

   |       |       |       |         |       |       |       |
E|---------------------------------|---------0------(5---------------||
B|---------------------------------|-1--------------)5---------------||
G|-2-----------------------2-------|----------------(5---------------||
D|-----------------2---------------|----------------)7---------------||
A|---------3-----------------------|----------------(7---------------||
E|---------------------------------|----------------)5---------------||
           poco rallentando
Tap to rate this tab
# A B C D E F G H I J K L M N O P Q R S T U V W X Y Z