Song name
# A B C D E F G H I J K L M N O P Q R S T U V W X Y Z

Jan Eggum - Mor Jeg Vil Tilbake tab

Great song by a Norwegian singer/songwriter

Standard tuning

Intro:

-5-----4-----------2---------------------------------------------------|
---------5---7-------3--------------5------------------5---------------|
---2-----------7---------------4/6------8--7-------4/6----8--7---------|
-2-----6-----------4---------2-------------7-----2-----------7---------|
-0-----4-----5-----2-------0------------9--9---0----------9--9---------|
----------------------------------------7--7--------------7--7---------|

1 Verse:

      Et lite barn er født,     hodet hans er stort og rødt
--------------------------------2-------0---------------2-------|
---2----2----2---2---3--5---------3--------3-----3---------3----|
---1----1----1-----------------------2-------2--------2-------2-|
---2----2----2------------------0-------------------4-----------|
-0----0----0-----0----------------------4--------2--------------|
----------------------------------------------------------------|

Han skriker som en gris,             just på ungers vis
---------2-----------------2--------------------2-----------------2-------|
-----------2------------------3-------------------2------------------0----|
-------------2---------2---------2-------------------2--------2---------2-|
-----2--------------4----------------------2----------------1-------------|
---4-------------2----------------------4-----------------2---------------|
-2------------------------------------2-----------------------------------|

Livet blir et sjokk,              for den som syntes mor var nok
----------7----------------7p4------------5p2----------------------------|
------------7-----------5------5-------3------3----------7------------9--|
------7-------7----------------------------------------7-----------9-----|
----7----------------6---------------4---------------7----------9--------|
--5---------------4---------------2---------------5----------7-----------|
-------------------------------------------------------------------------|

    Her er det klart og kaldt,  lukt og leven overalt
--------------------------------2-------0---------------2-------|
---2----2----2---2---3--5---------3--------3-----3---------3----|
---1----1----1-----------------------2-------2--------2-------2-|
---2----2----2------------------0-------------------4-----------|
-0----0----0-----0----------------------4--------2--------------|
----------------------------------------------------------------|

 Alle hyler så,                      ingen fred å få
---------2-----------------2--------------------2-----------------2-------|
-----------2------------------3-------------------2------------------0----|
-------------2---------2---------2-------------------2--------2---------2-|
-----2--------------4----------------------2----------------1-------------|
---4-------------2----------------------4-----------------2---------------|
-2------------------------------------2-----------------------------------|

  Dagen i et hopp,               er mye for så liten kropp
----------7----------------7p4------------5p2----------------------------|
------------7-----------5------5-------3------3----------7------------9--|
------7-------7----------------------------------------7-----------9-----|
----7----------------6---------------4---------------7----------9--------|
--5---------------4---------------2---------------5----------7-----------|
-------------------------------------------------------------------------|

---------------------------|
--2----2---------3-------5-|
--1----1-----2/4----4/6----|
--2----2-------------------|
----0----0-----------------|
---------------------------|

Chorus:
    Mor jeg vil tilbake,        Til ditt myke, mørke leie
--2--2-2-2--0-0-0-------------2--2-2-2---0-0-0-------------|
--3--3-3-3--0-0-0--2--2-2-2---3--3-3-3---0-0-0--2--2-2-2---|
--2--2-2-2--1-1-1--1--1-1-1---2--2-2-2---1-1-1--0--0-0-0---|
--0--0-0-0--2-2-2--2--2-2-2---0--0-0-0---2-2-2--2--2-2-2---|
------------2-2-2--0--0-0-0--------------2-2-2--0--0-0-0---|
------------0-0-0------------------------0-0-0-------------|

     Verden er   for stor for meg
--2--2-2-2--0-0-0-----------------------------|
--3--3-3-3--0-0-0-----------------------------|
--2--2-2-2--1-1-1------2-----2-----2-----7----|
--0--0-0-0--2-2-2----2-----2-----2-----7----7-|
------------2-2-2--0-----------------5--------|
------------0-0-0--------4-----2--------------|

 La meg,    forsvinne i deg
--------------------------------------------------------------|
---------5-----------------------------5----------------------|
-----4/6-----8----7---------------4/6--------8----7-----------|
---2--------------7-------------2-----------------7-----------|
-0-----------9----9-----------0--------------9----9-----------|
-------------7----7--------------------------7----7-----------|

The next verses and choruse are played almost the same, except the last chorus which you 
the last part twice and end with the intro.

Enjoy!

Verse 2:

En liten mann er født, målet hans er stort og søtt
Han samler i et kjør, slik som små menn gjør
Livet blir et sjokk, for den som syns han selv er nok.
Her er det strengt og kaldt, stive masker overalt
Du har en vei å gå, og en å ligge på
Dagen bak en mur, er styrke for en svak natur.

Chorus

Verse 3:

En gammel mann er født, kroppen hans er tung og trøtt
Han mister sin forstand, slik de gamle kan
Livet fullt av sjokk, tretti år ble mer enn nok.
Her er det hvitt og kaldt, uniformer overalt
Den som gir han brød, venter på hans død
Dagen er en lek, medsalmebok og julenek.

Chorus

http://janeggum.no/
Tap to rate this tab
 
# A B C D E F G H I J K L M N O P Q R S T U V W X Y Z