Song name
# A B C D E F G H I J K L M N O P Q R S T U V W X Y Z

Jan Hammer - Crocketts Theme tab

Crockett’s theme tab
By Jan Hammer


[Standard Tuning]

This riff encapsulates the 80’s hit ‘Miami Vice’ in which the song was heavily featured, aswell as
the all action, fast talking, ladies man - Don Johnson. Please, enjoy!

I recommend a neck pick up setting with echo and maybe some delay.


E|----15p13-----------------------------------------------------------------|
B|------------15-----11--13--13--11—13~---13---11—-13~----13--11-------[11]-|
G|----------------------------------------------------------------12~-------|
D|--------------------------------------------------------------------------|
A|--------------------------------------------------------------------------|
E|--------------------------------------------------------------------------|

[Alternate] end riff.


E|----15p13-----------------------------------------------------------------|
B|------------15-----11--13--13--11—13~---13---11—-13~---13--13--11—-13/15--|
G|--------------------------------------------------------------------------|
D|--------------------------------------------------------------------------|
A|--------------------------------------------------------------------------|
E|--------------------------------------------------------------------------|

E|--------------------------------------------------------------------------|
B|--13----------------------------------------------------------------------|
G|------15—-12~-------------------------------------------------------------|
D|--------------------------------------------------------------------------|
A|--------------------------------------------------------------------------|
E|--------------------------------------------------------------------------|


Thank You.
Tap to rate this tab
# A B C D E F G H I J K L M N O P Q R S T U V W X Y Z