Song name
# A B C D E F G H I J K L M N O P Q R S T U V W X Y Z

Jan Hammer - Crocketts Theme tab

Easy little feller, enjoy. Listen to the song to find where the parts go.
Stnadard tuning, even though it's all played on the 3 high strings.

Part I
-10-8----------------------------|
------10-6-8-6-8--8-6-8--6-8-6---|
-------------------------------7-|
---------------------------------|
---------------------------------|
---------------------------------|


Part II
-10-8----------------------5-----|
------10-6-8-6-8--8-6-8--6---6---|
-------------------------------7-|
---------------------------------|
---------------------------------|
---------------------------------|

Part III
-10-8----------------------5-6--5-6-10-8----|
------10-6-8-6-8--8-6-8--8---------------6--|
--------------------------------------------|
--------------------------------------------|
--------------------------------------------|
--------------------------------------------|
Tap to rate this tab
 
# A B C D E F G H I J K L M N O P Q R S T U V W X Y Z