Song name
# A B C D E F G H I J K L M N O P Q R S T U V W X Y Z

Jan Hegenberg - Die Allianz Schlaegt Zuruck tab

E---------------------------------------------------------------------|
B---------------------------------------------------------------------|
G---------------------------------------------------------------------|
D-------9--9------9--10--9--7--9-----5--5--7--5--4--------4-----------|
A--7----------------------------------------------------------5-------|
E---------------------------------------------------------------------|

E---------------------------------------------------------------------|
B---------------------------------------------------------------------|
G-----------------------------------------------------7---------------|
D-------9--9------9--10--9--7--9----10---10-------9------(7)----------|
A--7------------------------------------------------------------------|
E---------------------------------------------------------------------|

E---------------------------------------------------------------------|
B---------------------------------------------------------------------|
G---------------------------------------------------------------------|
D-------9--9------9--10--9--7--9-----5--5--7--5--4--------4-----------|
A--7----------------------------------------------------------5-------|
E---------------------------------------------------------------------|

E---------------------------------------------------------------------|
B---------------------------------------------------------------------|
G-----------------------------------------------------7---------------|
D-------9--9------9--10--9--7--9----10---10-------9-------------------|
A--7------------------------------------------------------------------|
E---------------------------------------------------------------------|
Tap to rate this tab
 
# A B C D E F G H I J K L M N O P Q R S T U V W X Y Z