Song name
# A B C D E F G H I J K L M N O P Q R S T U V W X Y Z

Jan Hegenberg - Strke Und Ehre tab

-------------------------------------------------------------------------------
                             Stärke und Ehre - Jan Hegenberg
-------------------------------------------------------------------------------
Tabbed by: FliegenderHase       
E-mail: flying-rabbit@gmx.de

Tuning: standard


Intro:


e|----------0---------------------0-----2------------------0-----------|
B|-------0----0-------------3--------3-----3---------3--------3-----3--|
G|-----0--------0--------0-----0------------------0-----0--------0-----|
D|---2------------2----------------------------------------------------|
A|--------------------3------------------------------------------------|
E|0--------------------------------------------3-----------------------|

e|--------------------------|
B|-------------0------------|
G|-------0-----------0------|
D|----4-----4-----4-----4---|
A|-2------------------------|
E|--------------------------|


Verse:


e|----------0---------------------0------------------------0-----------|
B|-------0----0-------------3--------3-----3---------3--------3-----3--|
G|-----0--------0--------0-----0--------0---------0-----0--------0-----|
D|---2------------2----------------------------------------------------|
A|--------------------3------------------------------------------------|
E|0--------------------------------------------3-----------------------|

e|--------------------------|
B|-------------0------------|
G|-------0-----------0------|
D|----4-----4-----4-----4---|
A|-2------------------------|
E|--------------------------|

Tap to rate this tab
 
# A B C D E F G H I J K L M N O P Q R S T U V W X Y Z