Song name
# A B C D E F G H I J K L M N O P Q R S T U V W X Y Z

Jan Hegenberg - Die Horde Rennt tab

Artist: Jan Hegenberg

Song: Die Horde rennt (WOW - Song)

Tabbed by:  "Azzy"^^


Melodie

E|----------------------------------------------------------------||
B|--------9-------------------------------------------------------||
G|----6-----9--11-11-13-11-9-8------------------------------------||
D|----------------------------------------------------------------||
A|----------------------------------------------------------------||
E|----------------------------------------------------------------||
										2x
E|----------------------------------------------------------------||
B|--------9-------------------------------------------------------||
G|----6-----9--11-13-11-9-11--------------------------------------||
D|----------------------------------------------------------------||
A|----------------------------------------------------------------||
E|----------------------------------------------------------------||


C#m
Spürst du den Boden beben?
E                      A    B
Siehst du den Rauch am Horizont?
C#m
Kannst du die Trommeln hören?
E                 A    B
Tausende müssen's sein

C#m                E
Dort stehen sie in Reih und Glied
A                   B
Atmen den Hauch des Todes
C#m             E
Hasserfüllt und voller Wut
A                    E
Wollen sie nur eins, Allianzenblut


Refrain:
C#m
Die Horde rennt
E
Sie macht alles nieder
A
Die Horde rennt
B
Nichts kann ihr widerstehen
C#m
Die Horde rennt
E
Sie singt ihre Lieder
A
Die Horde rennt
B
Und alles hinter ihr brennt


Jetzt die Melodie^^

Die Akkorde während der Melodie sind die
Gleichen wie in der Strophe oder im Chorus,
allerdings halbtaktig.

Den Rest einfach wie vorher xD


PS: FÜR DIE HORDE!!
Tap to rate this tab
# A B C D E F G H I J K L M N O P Q R S T U V W X Y Z