Song name
# A B C D E F G H I J K L M N O P Q R S T U V W X Y Z

Jan Hegenberg - Bad Time Touch tab

Okay, every stroke on the main guitar takes a 18th note so to play the solo 
simple interpolate the length or just listen to the song. I think the solo 
doesn't exactly sound like the original but see for yourself.


// V E R S E 1 //
E|------------|------------|------------|-----------------| 
B|------------|------------|------------|-----------------| 
G|------------|------------|------------|-5-5----7--7-----|4x
D|-7-7--------|-3-3--------|-5-5--------|-5-5----7--7-----| 
A|-7-7--------|-3-3--------|-5-5--------|-3-3----5--5-----| 
E|-5-5--------|-1-1--------|-3-3--------|-----------------| 
 // Start after 2nd time //
   What a wonderful illusion to be the king not the clown
   But when you wake up itīs like they stole your crown
E|-----------------|-----------------|-----------------|-----------------|
B|-----------------|-----------------|-----------------|-----------------|
G|-----------------|-----------------|-----------------|-5-5-----7-7-----|2x
D|-7-7-------------|-3-3-------------|-5-5-------------|-5-5-x-x-7-7-x-x-|
A|-7-7-x-x-x-x-x-x-|-3-3-x-x-x-x-x-x-|-5-5-x-x-x-x-x-x-|-3-3-3-3-5-5-5-5-|
E|-5-5-5-5-5-5-5-5-|-1-1-1-1-1-1-1-1-|-3-3-3-3-3-3-3-3-|-----------------|
   You got your grave in front of your eyes, 
                  your blood runs cold and you see how a little star dies
   The guilt in your eyes, the face in the dirt, 
                                      the little illusion your only light

										   
// C H O R U S //										   
E|-------------|----------------|----------------|----------------|
B|-------------|----------------|----------------|----------------|
G|-------------|-5----x-5---5-x-|----------------|----------------|2x
D|-7-----7-7---|-5----x-5---5-x-|-5---x--5---5-x-|-3----x-3---3-3-|
A|-7-----7-7---|-3----x-3---3-x-|-5---x--5---5-x-|-3----x-3---3-3-|
E|-5-----5-5---|----------------|-3---x--3---3-x-|-1----x-1---1-1-|
   Itīs a bad time touch, know that it wonīt last forever
   Itīs a bad time touch, know that it's now, now or never
E|-----------------|-----------------|
B|-----------------|-----------------|
G|-----------------|-----------------|
D|-3-3-3-3-3-3-3-3-|-3-3-3-3-3-5-5-7-|
A|-3-3-3-3-3-3-3-3-|-3-3-3-3-3-5-5-7-|
E|-1-1-1-1-1-1-1-1-|-1-1-1-1-1-3-3-5-|

   
// V E R S E 2 //   
E|-----------------|-----------------|-----------------|-----------------|
B|-----------------|-----------------|-----------------|-----------------|
G|-----------------|-5-5-------------|-7-7-------------|-9-9-------------|2x
D|-7-7-------------|-5-5-x-x-x-x-x-x-|-7-7-x-x-x-x-x-x-|-9-9-x-x-x-x-x-x-|
A|-7-7-x-x-x-x-x-x-|-3-3-3-3-3-3-3-3-|-5-5-5-5-5-5-5-5-|-7-7-x-x-x-x-x-x-|
E|-5-5-5-5-5-5-5-5-|-----------------|-----------------|-----------------|
   When your blame shines thru your thin disguise
                               And your fameīs been broken, would you lie
Just to feel your rights, and stand right tall
                             Although you know thatīs sure you gonna fall
E|-----------------|-----------------|-----------------|------------------|
B|-----------------|-----------------|-----------------|------------------|
G|-----------------|-----------------|-----------------|-5-5-----7-7------|2x
D|-7-7-------------|-3-3-------------|-5-5-------------|-5-5-x-x-7-7-x-x--|
A|-7-7-x-x-x-x-x-x-|-3-3-x-x-x-x-x-x-|-5-5-x-x-x-x-x-x-|-3-3-3-3-5-5-5-5--|
E|-5-5-5-5-5-5-5-5-|-1-1-1-1-1-1-1-1-|-3-3-3-3-3-3-3-3-|------------------|
   You know,         they know         that you will never fall
   So lift your gloves and like a man you will stand right tall

      
// C H O R U S //


// S O L O //
E|-------------------------|-------------------------|
B|-------------------------|-------------------------|
G|-------------------------|-------------------------| Main Guitar
D|-7--7--------------------|-------------------------|
A|-7--7--x--x--x--x--x--x--|-x--x--x--x--x--x--x--x--|
G|-5--5--5--5--5--5--5--5--|-5--5--5--5--5--5--5--5--|
 |                         |                         |
E|-12-12-17-12-12-17-12-12-|-12-12-17-12-12-12-12-12-|
B|-------------------------|-------------------------|
G|-------------------------|-------------------------| Solo Guitar
D|-------------------------|-------------------------|
A|-------------------------|-------------------------|
E|-------------------------|-------------------------|

E|-------------------------|---------------------------|--------------------|
B|-------------------------|---------------------------|--------------------|
G|-------------------------|---------------------------|-5--5---------------|
D|-3-3---------------------|---------------------------|-5--5-x-x--x--x-x-x-|
A|-3-3-x-x-x-----x-----x-x-|-x-----x---x-x--x----x-x-x-|-3--3-3-3--3--3-3-3-|
E|-1-1-1-1-1-----1-----1-1-|-1-----1---1-1--1----1-1-1-|--------------------|
 |                         |                           |                    |
E|-17~-----17-15-12-10-12--|-12-10-8-7-7/12-12-8-8/10--|--------------------|
B|-------------------------|---------------------------|--------------------|
G|-------------------------|---------------------------|--------------------|
D|-------------------------|---------------------------|-10-14~-14-10-12~---|
A|-------------------------|---------------------------|--------------------|
E|-------------------------|---------------------------|--------------------|

E|--------------------|-----------------------------|-------------------|
B|--------------------|-----------------------------|-------------------|
G|--------------------|-7-7-------------------------|-------------------|
D|-x-x-x-x-x-x--x--x--|-7-7-x-----x-----x--x--x--x--|-x--x--x-x-x-x-x-x-|
A|-3-3-3-3-3-3--3--3--|-5-5-5-----5-----5--5--5--5--|-5--5--5-5-5-5-5-5-|
E|--------------------|-----------------------------|-------------------|
 |                    |                             |                   |
E|--------------------|-----------------------------|-------------------|
B|--------------------|-----------------------------|-------------------|
G|-14----12-----------|-----------------------------|-------------------|
D|-----------14-12-10-|-12--12-14-12-10-12-10-------|-------------------|
A|--------------------|-----------------------12-10-|-------------------|
E|--------------------|-----------------------------|-12-10-8-5-3-5-----|


// C H O R U S //


// E N D I N G //
E|------------|
B|------------|
G|------------|
D|-7-7--------|
A|-7-7--------|
E|-5-5--------|
   Yeah yeah!
Tap to rate this tab
# A B C D E F G H I J K L M N O P Q R S T U V W X Y Z