Song name
# A B C D E F G H I J K L M N O P Q R S T U V W X Y Z

Jan Hegenberg - Einsame Stunden tab

Help us improve GuitareTab! Take a short survey!
Hi, hier ein genialer Song von Jan Hegenberg! Hoffe, ich hab's
richtig rausgehrt. Im Original ist die Gitarre ca. 2 Tne runter
gestimmt. "ca.", weil ich nicht wei, ob meine nun ganz richtig 
war... Hab's einfah mit Nero Wave Editor angeglichen...
Also: Viel Spa beim Spielen!!!

Verwendete Akkorde:
G/H  320033     G/H- 320030
Em7+ 022033     Em7  022030
C2+  032033     C2   032030
D4   000233     D2   000230

// RIFFLE 1 //
   G/H              Em7+             C2+              D4
e|-----3-------3--|-----3-------3--|-----3-------3--|-----3-------2-3|
h|-----3-------3--|-----3-------3--|-----3-------3--|-----3-------3-3|
G|---0---0---0---0|---0---0---0---0|---0---0---0---0|---2---2---2----|
D|----------------|----------------|----------------|-0-------0------|
A|----------------|----------------|-3-------3------|----------------|
E|-3-------3------|-0-------0------|----------------|----------------|

// RIFFLE 2 //
   Em7              C2               G/H-             D2
e|-----0-------0--|-----0-------0--|-----0-------0--|-----0-------0--|
h|-----3-------3--|-----3-------3--|-----3-------3--|-----3-------3--|
G|---0---0---0---0|---0---0---0---0|---0---0---0---0|---2---2---2---2|
D|----------------|----------------|----------------|-0-------0------|
A|----------------|-3-------3------|----------------|----------------|
E|-0-------0------|----------------|-3-------3------|----------------|


          ><> ><> ><> ><> ><> ><> o <>< <>< <>< <>< <>< <><


// INTRRO //
1x Riffle 1

// VERSE 1 // (Riffle 1)
G/H                        Em7+                  C2+          D4
Weit du eigentlich was du tust? Du lsst mich allein, ganz allein.  
G/H                         Em7+        C2+           D4
Dabei wollt ich eigentlich nur bei dir sein, bei dir sein. 


// PRE-CHORUS // (1. Mal: Riffle 2)
Em7                         C2
Was mach ich jetzt blo nur ohne dich?
          G/H-                 D2
Sag mir warum lsst du mich im Stich?
Em7	                          C2
Gehst deinen eigenen Weg ganz ohne mich. 
         G/H-                     D2
Und mein Herz begreift es einfach nicht. 

(Chords)
// CHORUS //
G/H                Em7+                 C2+
Einsame Stunden verbring ich ganz in Gedanken an dich
Und mein Herz verliert sich. 
G/H                  Em7                     C2+
Zweisame Stunden mit dir ersehn ich mir Und langsam 
stirbt ein Teil von mir. 

(Riffle 1)
// VERSE 2 //
G/H                        Em7+               C2+        D4
Weist du noch wies anfangs war, so nah, so vertraut, wir zwei.
G/H                       Em7+                  C2+
Haben uns gemeinsam etwas aufgebaut und daran geglaubt. 
        D4
Was ist nun?

(jetzt nur noch Chords)
// PRE-CHORUS //
// CHORUS //

// BRIDGE //
Em7     C2                D2        C2
So nah, so vertraut,  wir zwei, wir zwei. 
Em7     C2              D2                   C2
So nah, so vertraut und doch bin ich jetzt allein. 

// CHORUS //

(Chords - nur erster Tackt)
// BRIDGE //
Em7     C2                D2        C2
So nah, so vertraut,  wir zwei, wir zwei. 
Em7     C2              D2                   C2
So nah, so vertraut und doch bin ich jetzt allein. 
 


So, hrt sich doch schon ganz gut an... Wenn ihr was zu verbessern
habt... nur zu - ich bin noch am lernen!
Related for Einsame Stunden tab