Song name
# A B C D E F G H I J K L M N O P Q R S T U V W X Y Z

Jana Hunter - Palms tab

------------------------------------------------------------------------------|
------------------------------------------------------------------------------|
--0-0-0-0-0-0-0-0-0-0-0-0-0-0-0-0-0-0-0-0-0-0-0-0-0-0-0-0-0-0-0-0-0-0-0-0-0---|
-----------------------------------------------------------7-7----------------|
-3---3-3-3---3-3-3---3-3-3-----3-5-7-7-7-7-----3-5-7-7-7-7-----7-7-7-7-7-7----|
-------------------------0h3-5-----------0h3-5--------------------------------|

------------------------------------------------------------------------------|
------------------------------------------------------------------------------|
--0-0-0-0-0-0-0-0-0-0-0-0-0-0-0-0-0-0-0-0-0-0-0-0-0-0-0-0-0-0-0-0-0-0-0-0-0---|
-7-7--------------------------------------------------------------------------|
-----7-7-5-5-5-5-5-5-5-5-3-3-3-3-3--------------------------------------------|
------------------------------------------------------------------------------|
Tap to rate this tab
 
# A B C D E F G H I J K L M N O P Q R S T U V W X Y Z