Jane Air - Junk tab

   JANE AIR - Junk (official tabs)
 


  riff 1 
   
E|----------------------|
B|----------------------|
G|-----3p4--------------|
D|---------5p4----------|
A|-------------5p4h5p4--|
E|-6--6-----------------|


  CHORUS

E|---------------------------------|
B|---------------------------------|
G|-3-3-x-3-x-3-3-3-4-4-x-4-x-4-4-4-|
D|-3-3-x-3-x-3-3-3-4-4-x-4-x-4-4-4-|
A|-1-1-x-1-x-1-1-1-2-2-x-2-x-2-2-2-|
E|-1-1-x-1-x-1-1-1-2-2-x-2-x-2-2-2-|
   
   

koren_janeair@mail.ru
Tap to rate this tab
 
# A B C D E F G H I J K L M N O P Q R S T U V W X Y Z