Song name
# A B C D E F G H I J K L M N O P Q R S T U V W X Y Z

Jane Air - 980665 tab

 jane air
 '9.80665'
 pere-lachaise. l'ubov' i nemnogo smerti
 tabbed by: i'm not ok! (i_am_not_ok@inbox.ru)
 tuning: EADGBe

 so, this is instrumental track of great russian alternative
 band called jane air. esli vy smotrite na etot tab, to vy
 veroyatno znaete o ney :) genial'no i prosto...

e|------------------------------------|
b|------------------------------------|
g|-x-x-9~-x-9~-x-x-9~-x-x-9~-x-x-x-9~-|
d|-x-x-9~-x-9~-x-x-9~-x-x-9~-x-x-x-9~-| (x6)
a|-x-x-7~-x-7~-x-x-7~-x-x-7~-x-x-x-7~-|
e|------------------------------------|

e|----|
b|----|
g|-12-|
d|-x--| (x32)
a|-10-|
e|----|

e|------------------------------------|
b|------------------------------------|
g|-x-x-9~-x-9~-x-x-9~-x-x-9~-x-x-x-9~-|
d|-x-x-9~-x-9~-x-x-9~-x-x-9~-x-x-x-9~-| (x2)
a|-x-x-7~-x-7~-x-x-7~-x-x-7~-x-x-x-7~-|
e|------------------------------------|

e|--------------------------------------------------|
b|--------------------------------------------------|
g|-12-12-12-12-12-12-12-12--14-14-14-14-14-14-14-14-|
d|-x--x--x--x--x--x--x--x---x--x--x--x--x--x--x--x--|
a|-10-10-10-10-10-10-10-10--12-12-12-12-12-12-12-12-|
e|--------------------------------------------------|

e|------------------------------------|
b|------------------------------------|
g|-x-x-9~-x-9~-x-x-9~-x-x-9~-x-x-x-9~-|
d|-x-x-9~-x-9~-x-x-9~-x-x-9~-x-x-x-9~-| (x4)
a|-x-x-7~-x-7~-x-x-7~-x-x-7~-x-x-x-7~-|
e|------------------------------------|

e|--------------------------------------------------|
b|--------------------------------------------------|
g|-12-12-12-12-12-12-12-12--14-14-14-14-14-14-14-14-|
d|-x--x--x--x--x--x--x--x---x--x--x--x--x--x--x--x--|
a|-10-10-10-10-10-10-10-10--12-12-12-12-12-12-12-12-|
e|--------------------------------------------------|

e|---------------------------|
b|---------------------------|
g|---------------------------|
d|-9-5---7-4---9-5-----------| (x6)
a|-----7-----5-----7--777777-|
e|---------------------------|
     . .   . .   . .

e|---------------------------|
b|---------------------------|
g|---------------------------|
d|-9-5---7-4---9-5-----------| (x2)
a|-----7-----5-----7--777777-|
e|---------------------------|
   . . . . . . . . .

e|--------------------------------------------------|
b|--------------------------------------------------|
g|-12-12-12-12-12-12-12-12--14-14-14-14-14-14-14-14-|
d|-x--x--x--x--x--x--x--x---x--x--x--x--x--x--x--x--|
a|-10-10-10-10-10-10-10-10--12-12-12-12-12-12-12-12-|
e|--------------------------------------------------|

e|------------------------------------|
b|------------------------------------|
g|-x-x-9~-x-9~-x-x-9~-x-x-9~-x-x-x-9~-|
d|-x-x-9~-x-9~-x-x-9~-x-x-9~-x-x-x-9~-| (x6)
a|-x-x-7~-x-7~-x-x-7~-x-x-7~-x-x-x-7~-|
e|------------------------------------|

e|-----------------|
b|-----------------|
g|-----------------|
d|-9-0-5-0-7-0-4-0-| (x4)
a|-----------------|
e|-----------------|

e|----------------------------|
b|----------------------------|
g|-------------------------4*-|
d|-5----4------5----4---------|
a|---7----5------7----5-------|
e|-----7----5------7----5-----|

e|------------------------------|
b|------------------------------|
g|-------------------------5b3*-| <= it's a finger-harmonic
d|-5-2---4-0---5-2---4-0--------|
a|-----2-----0-----2-----0------|
e|------------------------------|

e|------------------------------------|
b|----------------------------------0-|
g|------------------------------0h2---|
d|-5-2---4-0---5-2---4-0----0h2-------|
a|-----2-----0-----2-----0------------|
e|------------------------------------|

e|-----------------|      e|--------------|
b|-----------------|      b|--------------|
g|-----------------|      g|---------4b2*-| <= it's a finger-harmonic
d|-9-0-5-0-7-0-4-0-| (x3) d|-9-0-5-0------|
a|-----------------|      a|--------------|
e|-----------------|      e|--------------|

e|------------------------------|
b|------------------------------|
g|-x-x-xx-9~-xxx9~-x-9~-xxxx-9~-|
d|-x-x-xx-9~-xxx9~-x-9~-xxxx-9~-| (x4)
a|-x-x-xx-7~-xxx7~-x-7~-xxxx-7~-|
e|------------------------------|

outro:

Em Cb5 Em Em Em Cb5
Em Cb5 Em Em Em Cb5 Cb5
Em Cb5 Em Em Em Cb5
Em Cb5 Em Em Em Cb5 Cb5
Em Em


this tab is 100% correct. if u have a question mail me...
Tap to rate this tab
# A B C D E F G H I J K L M N O P Q R S T U V W X Y Z