Song name
# A B C D E F G H I J K L M N O P Q R S T U V W X Y Z

Jane Taylor - Twinkle Twinkle Little Star tab

|----------------------------------------------------------------------|
|----------------------------------------------------------------------|
|----------------------------------------------------------------------|
|--------------0---0-------2---2---0-----------------------------------|
|----------------------------------------3---3---2---2---0---0---------|
|------3---3-----------------------------------------------------3-----|

|----------------------------------------------------------------------|
|----------------------------------------------------------------------|
|------0---0-------------------------------0---0-----------------------|
|--------------3---3-------2---2---0---------------3---3---2---2---0---|
|----------------------------------------------------------------------|
|----------------------------------------------------------------------|

|----------------------------------------------------------------------|
|----------------------------------------------------------------------|
|-------------------0---0-------2---2---0------------------------------|
|-------------------------------------------3---3---2---2---0---0------|
|-----------3---3---------------------------------------------------3--|
|----------------------------------------------------------------------|
Tap to rate this tab
 
# A B C D E F G H I J K L M N O P Q R S T U V W X Y Z