Song name
# A B C D E F G H I J K L M N O P Q R S T U V W X Y Z

Jane Wiedlin - Rush Hour tab

Artist: Jane Wiedlin
Song: Rush Hour (solo)
Album: Fur

Tip: try and hit lots of artificial harmonics to get it sounding sweet, and add lots of reverb

e|-------12~~~~-|-12-12-10-------|---------------|------------------------|
b|----12--------|----------10----|----------10---|-9----------------------|
g|-10-----------|----------------|-----11--------|---11-9-----------------|
d|--------------|-------------11-|-9-9----9----9-|--------11-9\-----------|
a|--------------|----------------|---------------|------------------------|
E|--------------|----------------|---------------|------------------------|

e|------------------|-----------------|--------------------|--------------------------|
b|-10---10-10-10-10-|-13-13-13-13-12\-|--------------------|-10-----------------------|
g|-9----9--9--9--9--|-9--9--9--9------|-9--9-9-9--9-9-9--9-|-9b11-9--9------9---------|
d|-9----9--9--9--9--|-9--9--9--9------|--------------------|-----------11p9---11------|
a|------------------|-----------------|--------------------|--------------------------|
E|------------------|-----------------|--------------------|--------------------------|

e|--------------------------------|---------------|----------------|----------------------------|
b|----------------10--------------|---------------|----------------|-/12~~12~~12~~12~~12~~------|
g|-9-11---------9-11b13-9----9-9--|-9--9--9-9-9---|-9--9--9-9-9-11-|----------------------------|
d|------9--9h11-----------11------|-------------9-|----------------|----------------------------|
a|--------------------------------|---------------|----------------|----------------------------|
E|--------------------------------|---------------|----------------|----------------------------|
Tap to rate this tab
# A B C D E F G H I J K L M N O P Q R S T U V W X Y Z