Janes Addiction - Whores tab

by speedy

This is the first solo of the re-recorded 2009 NINJA Tour Sampler version, starting at 
It kicks ass and it's easy to play. The timing may not be 100% accurate, get a listen.

Have fun


e|------------------------------------------------------------------------|
B|------------------------------------------------------------------------|
G|-------16------16------16-----12---12--11-------------------------------|
D|--/14-------14------14------10---10----------12----12------11---12--14\-|
A|------------------------------------------10-----10----10--12~----------|
E|------------------------------------------------------------------------|

2nd part with slightly different timing
e|------------------------------------------------------------------------|
B|------------------------------------------------------------------------|
G|---------16------16------16-16---12---12--11----------------------------|
D|----/14-------14------14-------10---10----------12----12-------11~~\----|
A|----------------------------------------------10-----10----10--0--------|
E|------------------------------------------------------------------------|

| /  slide up
| \  slide down
| h  hammer-on
| p  pull-off
| ~  vibrato
| +  harmonic
| x  Mute note
Tap to rate this tab
 
# A B C D E F G H I J K L M N O P Q R S T U V W X Y Z