Song name
# A B C D E F G H I J K L M N O P Q R S T U V W X Y Z

Janes Addiction - Been Caught Stealing tab

-----------------------------------------------------------------
Been Caught Stealing – Jane’s Addiction
-----------------------------------------------------------------
Tabbed by: Mark Eggertsen
Email: markeggertsen@yahoo.com
Tuning: Standard

I play this solo with some palm muting on a lot of the notes, but I don't think there is
in the original. This tablature really shows Dave's creativity with regards to his use
slightly jazzy modes and chromatic scales. To my knowledge, no one else on the net has 
this solo completely. Send any corrections to markeggertsen@yahoo.com

E|---------------------------------------------------------------|
B|--6----6---6----6---6------------------------------------------|
G|--5b7—-5b7—5b7—-5b7—7r5--3--5--3--4----------------------------|
D|-------------------------------------5--3----------------------|
A|-------------------------------------------5-3-2—2v------------|
E|------------------------------------------------------1v-------|
                                                        ph

E|--------------------------------------------------7-8-10—8b10--|
B|---------------------------------------------------------------|
G|---------------------------------------------------------------|
D|---------------------------------------------------------------|
A|----------------------2b3----0----2----0-----------------------|
E|-1v-------1v-----3---------------------------------------------|
   ph       ph       ph ph     ph   ph   ph

E|--8b10r8-7-8-6-7----------------8b10r8-6-8-6-7-----6---/15-----|
B|-----------------8-8-6----6-8------------------8---------------|
G|------------------------7--------------------------------------|
D|---------------------------------------------------------------|
A|---------------------------------------------------------------|
E|---------------------------------------------------------------|

E|--13b15r13----13-15r13-----18b20—15----------------------------|
B|-----------15-----------15-------------18b20vvv----------------|
G|---------------------------------------------------------------|
D|---------------------------------------------------------------|
A|---------------------------------------------------------------|
E|---------------------------------------------------------------|

E|--18-15-15-15--------------------------------------------------|
B|---------------18-17-18-17-15-17-15----15----------------------|
G|------------------------------------17----17-15-17-15vvv-------|
D|---------------------------------------------------------------|
A|---------------------------------------------------------------|
E|---------------------------------------------------------------|

E|---------------------------------------------------------------|
B|--12/14--14--14--14--14-12----12----12----12-------------------|
G|-----------------13--13—11b13-11b13-11b13-11b13r11p9--10-------|
D|---------------------------------------------------------------|
A|---------------------------------------------------------------|
E|---------------------------------------------------------------|

E|---------------------------------4----3----4-------------------|
B|---------------------------------3----2----3-------------------|
G|---------------------------------3----2----3-------------------|
D|--11--9--------------------------3----2----3-------------------|
A|---------11--10--9---------------------------------------------|
E|--------------------7vvvv--------------------------------------|

E|---------------------------------------------------------------|
B|---------------------------------------------------------------|
G|----------------------------------------8\7--5--7—----5—8/10---|
D|-------3—3b5r3-----3-------------------------------5-----------|
A|--3--6----------6----6--7--------6—8/10------------------------|
E|-----------------------------8---------------------------------|
           ph

E|----------8vvvvv------6----5----6------------------------------|
B|---8--11--------------5----4----5------------------------------|
G|----------------------5----4----5------------------------------|
D|----------------------5----4----5------------------------------|
A|---------------------------------------------------------------|
E|---------------------------------------------------------------|

E|---------------------------------------------------------------|
B|---------------------------------------------------------------|
G|---------------------------------------------------------------|
D|---------------------------------------------------------------|
A|---------------------------------------------------------------|
E|---------------------------------------------------------------|

Tablature Notation

h - hammer on
p - pull off
b - bend string up
r - release bend
ph - pinch harmonic
/ - slide up
\ - slide down
v - vibrato (or ~)
t - right hand tap
x - play 'note' with heavy muting
Tap to rate this tab
# A B C D E F G H I J K L M N O P Q R S T U V W X Y Z