Song name
# A B C D E F G H I J K L M N O P Q R S T U V W X Y Z

Janes Addiction - Had A Dad tab

-------------------------------------------------------------------------------
			     Had a Dad (intro) - Jane's Addiction
-------------------------------------------------------------------------------
Tabbed by: Ian Anderson
Email: yopugged@yahoo.com

Tuning: Standard

 \ - slide down

e|---------------------------------------------------------------------------|
B|---2-2----------------8\---------------------------------------------------|
G|---2-2----------------7\---------------------------------------------------|
D|---2-2---5-5-5-7------6\---------------------------------------------------|
A|---0-0---5-5-5-7------7\---------------------------------------------------|
E|---------3-3-3-5-----------------------------------------------------------|

Tap to rate this tab
# A B C D E F G H I J K L M N O P Q R S T U V W X Y Z