Guitaretab - guitar tabs
Song name
# A B C D E F G H I J K L M N O P Q R S T U V W X Y Z

Janes Addiction - Mountain Song tab

Mountain Song
Janes Addiction
nothing shocking: (1987)
Tabbed by John Hoyle(viperhoyle@hotmail.com)
Guitar: Dave Navarro
Music: Janes Addiction
Tuning: E A D G B E
Notes:.This is my Fouth tab ever tab that i have
put on-line so if you think its crap tell me or if you think its bad ass tell me 
thank you .PS Mr Navarro rules so go buy his solo album "trust no one".

NH= Natural Harmonics
h = hammer-on
p = pull-off
b = bend
/ = slide up
\ = slide down
5 = power chord
! = Flat (as in Guitar tuning)
% = sharp
X = Mute
()= Let Ring

Intro

    E5           Em7          E5        E7         E5

e|---------------3--3--3-----------------4----------|
B|---0-----------3--3--3------0----------3---------0|
G|---X-----------X------------X----------X---0-----X|
D|--=2-----------2--------X\--2|---------2---------2|
A|---2--------------------X\--2--------------------2|
E|---0----0-0-------------X\--0-----0-0-------15/--0|

Main Riff

  D5E5  G5E5 D5E5

e|-----------------------|
B|-----------------------|
G|7\9--12/9--7\9---------|
D|7\9--12/9--7\9---------|
A|5\7--10/7--5\7---------|
E|-------------0-0-0-0---|


Middle

   D Dsus4  D             D5/A Dsus4 D
e|-----------------------------------------------------------------|
B|-7--8-8---7--7-7-------------8--8--7-----------------------------|
G|-7--7-7---7--7-7---------7---7--7--7------7-7-7-7-7-7-8-8-8-8-8-8|
D|-7--7-7---7--7-7--10--9--7---7--7--7---P--X-X-X-X-X-X-X-X-X-X-X-X|
A|-5--------5-------X---X--5---------5--5-0-5-5-5-5-5-5-6-6-6-6-6-6|
E|------------------8---7--5---------------------------------------|


Solo(Pt1)


e|X-17/16-16-16\17-17-19--19\22-22--19b-17\15-17-15B----|
B|X-X--X--X--X--X--X--X---X--X--X-------X--X---------X-X|
G|X-14/13-13-13\14-14-16--16\19-19------14\12--------X-X|
D|-----------------------------------------------------X|
A|------------------------------------------------------|
E|------------------------------------------------------|
W\Wah And Delay


Solo(Pt2)
[ Tab from: http://www.guitaretab.com/j/janes-addiction/9052.html ]
e|-----------------------------------------------------------|
B|-----------------------------------15-15-14--X-X-X-X-X-X-X-|
G|-X-----------h-----------------h---X--X--X---X-X-X-X-X-X-X-|
D|-X-12-1212-12-14----12-12-12-12-14-12-12-11--X-X-X-X-X-X-X-|
A|---------------12------------------------------------------|
E|-----------------------------------------------------------|
                                              W/Wah

Solo(Pt3)

                     NH
e|---------------------------------------------------------------------------|
B|---------------------------------------------------------------------------|
G|-X-X-X-X-X-X---------------------------------------b----------16b-15---b---|
D|-X-X-X-X-X-X------[5]--[7]--[7]--([7])----h---12-14-(14)-(14)-14-----14--14|
A|-X-X-X-X-X-X--X-X-[5]--[7]--[7]--([7])--12-14------------------------------|
E|--------------X-X-[5]--[7]--[7]--([7])-------------------------------------|





                                        b b b       b
e|---------------------h---10--b-------13-13-15-15-17-17-17-17-|
B|--------------------7-10----13(13)10-------------------------|
G|11-11-11-11-11-(11)------------------------------------------|
D|-------------------------------------------------------------|
A|-------------------------------------------------------------|
E|-------------------------------------------------------------|


Interlude(Pt1)


e|-b-b------------------------|----------------------------|
B|19-19-----------------------|7-8-8-7-7-7--------8-8-7----|
G|------7/9-12\9-7/9--------x8|7-7-7-7-7-7------7-7-7-7----|
D|------7/9-12\9-7/9----------|7-7-7-7-7-7-10-9-7-7-7-7--P-|
A|------5/7-10\7-5/7----------|5-----5-----X--X-5-----5-5-0|
E|-------------------0-0-0-0--|------------8--7-5----------|


Interlude(Pt2)



e|-------------------------|
B|-------------------------|
G|-7-7-7-7-7-7-8-8-8-8-8-8-|
D|-X-X-X-X-X-X-X-X-X-X-X-X-|
A|-5-5-5-5-5-5-6-6-6-6-6-6-|
E|-------------------------|


Outro

   D E G E  D E E
e|-------------------|
B|-7\9-12/9-7\9-1(1)-|
G|-7\9-12/9-7\9-2(2)-|
D|-7\9-12/9-7\9-2(2)-|
A|-------------------|
E|-------------------|
Related for Mountain Song tab
Advertisement will be closed in 10 seconds