Janet Jackson - Black Cat tab

Here is the solo tab for Black Cat by Janet Jackson
Really fun solo to play this is based mostly from the guitar pro tab
It does need some work but this will have to do in the meantime xD

I think Jesse Johnson is on guitar here amazing work if I must say

Janet Jackson
Black Cat
Rhythm Nation 1814
1989



    Guitar 1

(DB)=Dive Bomb
e-||----------12--------------------------|
B-||-------12----15B(17)-12-15------------|
G-||-3(DB)--------------------------------|
D-||--------------------------------------|
A-||--------------------------------------|
E-||--------------------------------------|

e-||-----14-17-16-15-14----14-------15-17B(19)-15--|
B-||---15---------------17----15/17----------------|
G-||-16--------------------------------------------|
D-||-----------------------------------------------|
A-||-----------------------------------------------|
E-||-----------------------------------------------|
     Rake
e-||-17B(19)-15-------15B(15.5)-------------------|
B-||------------17-17-----------------------------|
G-||----------------------------------------------|
D-||----------------------------------------------|
A-||----------------------------------------------|
E-||----------------------------------------------|

e-||-----------------------------10B(12)-----------------|
B-||-/10B(12)-8-10-10-8-10-8------------10B(12)-10-8-----|
G-||-------------------------9-7---------------------9---|
D-||-----------------------------------------------------|
A-||-----------------------------------------------------|
E-||-----------------------------------------------------|
     (TR) = Trill
e-||------------------------------------------12------------------|
B-||--------------12-14B(16)-12-14-12-15B(17)----15-12----12------|
G-||-\11TR14/--12--------------------------------------15-----15--|
D-||--------------------------------------------------------------|
A-||--------------------------------------------------------------|
E-||--------------------------------------------------------------|

e-||--------------------------------------|
B-||--------------------------------------|
G-||-12-16-12-16-12-16-12-14B(16)---------|
D-||--------------------------------------|
A-||-------------------------------x/-----|
E-||-------------------------------x/-----|

   Guitar 2
    * = pinched harmonic
e-||-------------------------------------------------------|
B-||------------------15B(17)~~----------------------------|
G-||------------------------14B(16)-12----14-14-12B(13)-12-|
D-||-------5*B(5.5)--------------------14------------------|
A-||-5* 7*----------7--------------------------------------|
E-||-------------------------------------------------------|

e-||---------------------------------------------------------|
B-||---------------------------------------------------------|
G-||-------------14B(16)-12----------------------------------|
D-||-14-14-14-14------------14-14-12-14-12-----------------0-|
A-||---------------------------------------14-13-12--------0-|
E-||-------------------------------------------------15-12-0-|

   Tap Lick

e-||-------------------------------------------|
B-||-8-10-12T20P12T20P12P10P8T19P12T19P12P10P8-|
G-||-------------------------------------------|
D-||-------------------------------------------|
A-||-------------------------------------------|
E-||-------------------------------------------|

   Tap Lick Cont.

e-||------------------------------------10B(12)-7-|
B-||-T17P12T17P12P10P8T17P12T17P12P10P8-----------|
G-||----------------------------------------------|
D-||----------------------------------------------|
A-||----------------------------------------------|
E-||----------------------------------------------|

   W=Whammy bar

e-||--------------/14---------------------|
B-||-8-10-12-10-8-----15W-----------------|
G-||--------------------------------------|
D-||--------------------------------------|
A-||--------------------------------------|
E-||--------------------------------------|

e-||-12------------------------------------------------17B(19)----------|
B-||----15-12----12---------------------------------12---------15-17-17-|
G-||----------15----14B(16)-14-12----14----12-14-15---------------------|
D-||------------------------------14----14------------------------------|
A-||--------------------------------------------------------------------|
E-||--------------------------------------------------------------------|
Tap to rate this tab
 
# A B C D E F G H I J K L M N O P Q R S T U V W X Y Z