Song name
# A B C D E F G H I J K L M N O P Q R S T U V W X Y Z

Janet Jackson - Love Me Just A Little While tab

ok this is pretty weird but i was listening 2 my dads music and i started 2 listen to 
song and then i strangly tryed 2 play it i dont no if it is rite or not but to get the 
rite u got 2 haer the song
                                                                    x3


|----------------------------------------------------------------------|
|----------------------------------------------------------------------|
|----------------------------------------------------------------------|
|----5-----------------------------------------------------------------|
|----6------5----------------------------------------------------------|
|--------3-------------------------------------------------------------|

|-----------------------------------------------------------------------|
|-----------------------------------------------------------------------|
|-----------------------------------------------------------------------|
|-----------------------------------------------------------------------|
|------5-----3----------------------------------------------------------|
|----3------1-----------------------------------------------------------|
Tap to rate this tab
 
# A B C D E F G H I J K L M N O P Q R S T U V W X Y Z