Song name
# A B C D E F G H I J K L M N O P Q R S T U V W X Y Z

Janis Joplin - Little Girl Blue tab

Little girl Blue intro

E---13-12-13-15-17-15-13-12-13----12-13-----------------------------------|
B------------------------------15-------15-13-15-11-13-15--------13-------|
G----------------------------------------------------------14-15----------|
D-------------------------------------------------------------------------|
A-------------------------------------------------------------------------|
E-------------------------------------------------------------------------|


E-------------------------------------------------------------------------|
B--------11-11/13-13-13-15-13-11-13-10-11-10----------------------10-11---|
G--12-14-------------------------------------12-10----------10-12---------|
D--------------------------------------------------12-10-12---------------|
A-------------------------------------------------------------------------|
E-------------------------------------------------------------------------|


E-------------------------------------------------------------------------|
B--13-13/15-13-11-13-10-10-8----8-10/13-13/17-17-15-13-15-----------------|
G----------------------------10-------------------------------------------|
D-------------------------------------------------------------------------|
A-------------------------------------------------------------------------|
E-------------------------------------------------------------------------|


E--13--13-13-12-10-12----10----------------------------------------------|
B---------------------13----11-13-10-12----------------------------------|
G------------------------------------------------------------------------|
D------------------------------------------------------------------------|
A------------------------------------------------------------------------|
E------------------------------------------------------------------------|
Tap to rate this tab
# A B C D E F G H I J K L M N O P Q R S T U V W X Y Z