Song name
# A B C D E F G H I J K L M N O P Q R S T U V W X Y Z

Janis Joplin - Leaving On A Jet Plane tab

After reading/listening to the other tabs of this song i came up with this. i think it 
closer to the song. enjoy


E---------------------------------------------------------------------|
B----3-2-------------0-----3-2---------------0------3-2-0---3-2-0---0-|
G-2-4-----2--------2-----2-----2-----------2------2-------2-------2---|
D----------2-4-4-------------------2-2-4-4----------------------------|
A---------------------------------------------------------------------|
E---------------------------------------------------------------------|

E------------------------------------------------------------------------------|
B---3-2-------------0----3-2-------------0-----3-2-0---3-2-0---0---------------|
G-2-------2-------2----2-----2---------2-----2-------2-------2-----------------|
D-----------2-2-4--------------2-2-4-4-----------------------------------------|
A------------------------------------------------------------------------------|
E------------------------------------------------------------------------------|

E-0-0--0-------0-----0-------0-----0---------|
B----2---3-2-----2-2---3-2-----2-2---3-2---0-|
G-----------2--------------2------------4-2--|
D--------------------------------------------|
A--------------------------------------------|
E--------------------------------------------|
Tap to rate this tab
# A B C D E F G H I J K L M N O P Q R S T U V W X Y Z