Song name
# A B C D E F G H I J K L M N O P Q R S T U V W X Y Z

Jank 1000 - 42 Miles tab

Artist: Jank 1000
Song: 42 Miles
Album: Old School, New School, Middle School



C# A# F# G#
e|----------------------6-66-666-6-66-666---2-22-222-2-22-222---4-44-444-4-44-444--|
B|--6-66-666-6-66-666---6-66-666-6-66-666---2-22-222-2-22-222---4-44-444-4-44-444--|
G|--6-66-666-6-66-666---6-66-666-6-66-666---3-33-333-3-33-333---5-55-555-5-55-555--|
D|--6-66-666-6-66-666---8-88-888-8-88-888---4-44-444-4-44-444---6-66-666-6-66-666--|
A|--4-44-444-4-44-444---8-88-888-8-88-888---4-44-444-4-44-444---6-66-666-6-66-666--|
E|--4-44-444-4-44-444---6-66-666-6-66-666---2-22-222-2-22-222---4-44-444-4-44-444--|
Staring up at the stars tonight...


C# A# F# G#
e|----------------------6-66-666-6-66-666---2-22-222-2-22-222---4-44-444-4-44-444--|
B|--6-66-666-6-66-666---6-66-666-6-66-666---2-22-222-2-22-222---4-44-444-4-44-444--|
G|--6-66-666-6-66-666---6-66-666-6-66-666---3-33-333-3-33-333---5-55-555-5-55-555--|
D|--6-66-666-6-66-666---8-88-888-8-88-888---4-44-444-4-44-444---6-66-666-6-66-666--|
A|--4-44-444-4-44-444---8-88-888-8-88-888---4-44-444-4-44-444---6-66-666-6-66-666--|
E|--4-44-444-4-44-444---6-66-666-6-66-666---2-22-222-2-22-222---4-44-444-4-44-444--|
Wondering, thing of you...


G#? A?
e|--11-1111-111111---12-1212-121212--|
B|--11-1111-111111---12-1212-121212--|
G|--13-1313-131313---14-1414-141414--| (All 11s, 12s, etc)
D|--13-1313-131313---14-1414-141414--|
A|--11-1111-111111---12-1212-121212--|
E|--11-1111-111111---12-1212-121212--|
...sleep. But I can't...


A# F# C# G#
e|--6-66-666-6-66-666---2-22-222-2-22-222-----------------------4-44-444-4-44-444--|
B|--6-66-666-6-66-666---2-22-222-2-22-222---6-66-666-6-66-666---4-44-444-4-44-444--|
G|--6-66-666-6-66-666---3-33-333-3-33-333---6-66-666-6-66-666---5-55-555-5-55-555--|
D|--8-88-888-8-88-888---4-44-444-4-44-444---6-66-666-6-66-666---6-66-666-6-66-666--|
A|--8-88-888-8-88-888---4-44-444-4-44-444---4-44-444-4-44-444---6-66-666-6-66-666--|
E|--6-66-666-6-66-666---2-22-222-2-22-222---4-44-444-4-44-444---4-44-444-4-44-444--|
...stop thinking 

G# A
e|--4------5------|
B|--4------5------|
G|--5-x-x--5-x-x--|
D|--6-x-x--7-x-x--|
A|--6-x-x--7-x-x--|
E|--4-x-x--5-x-x--|
...always...


A# F# C# G#
e|--6-66-666-6-66-666---2-22-222-2-22-222-----------------------4-44-44--|
B|--6-66-666-6-66-666---2-22-222-2-22-222---6-66-666-6-66-666---4-44-44--|
G|--6-66-666-6-66-666---3-33-333-3-33-333---6-66-666-6-66-666---5-55-55--|
D|--8-88-888-8-88-888---4-44-444-4-44-444---6-66-666-6-66-666---6-66-66--|
A|--8-88-888-8-88-888---4-44-444-4-44-444---4-44-444-4-44-444---6-66-66--|
E|--6-66-666-6-66-666---2-22-222-2-22-222---4-44-444-4-44-444---4-44-44--|
...understand when I am gone...

G# A
e|--4---5---|
B|--4---5---|
G|--5---5---|
D|--6---7---|
A|--6---7---|
E|--4---5---|
I can't


^ = Accentuated Note

A# A G# 
^^ ^^ ^^ ^^ ^^ ^^ ^^ ^^ ^^ ^^ ^^ ^^ ^^ ^^ ^^ ^^
e|-6666666666666666---5555555555555555---4444444444444444---4444444444444444--|
B|-6666666666666666---5555555555555555---4444444444444444---4444444444444444--|
G|-6666666666666666---5555555555555555---5555555555555555---4444444444444444--|
D|-8888888888888888---7777777777777777---6666666666666666---6666666666666666--|
A|-8888888888888888---7777777777777777---6666666666666666---6666666666666666--|
E|-6666666666666666---5555555555555555---4444444444444444---4444444444444444--|
Wait to see you...


F#
^ ^^ ^ ^^ ^^ ^ 
e|-2-22-22222222222---2~--|
B|-2-22-22222222222---2~--|
G|-3-33-33333333333---3~--|
D|-4-44-44444444444---4~--|
A|-4-44-44444444444---4~--|
E|-2-22-22222222222---2~--|
Feel.... And every mile's a ways from you.

Tap to rate this tab
# A B C D E F G H I J K L M N O P Q R S T U V W X Y Z